Song name
# A B C D E F G H I J K L M N O P Q R S T U V W X Y Z

Misc Unsigned Bands - Twilight Ecipse - 9 Oclock tab

INTRO

E---------------------------------------------|
B---------------------------------------------|
G---------------------------------------------|
D---------------------------------------------|
A--------------13------13---13------14-13-12--|
D---12-12-12-12--12-12---12---12-12-----------| x4

E---------------------------------------------|
B---------------------------------------------|
G---------------------------------------------|
D---------------------------------------------|
A---------------13-------13---------14-13-12--|
D---12-12-12-12-12-12-12-12-12-12-12----------| x4


VERSE 1

E----------------------------------                  --------------------------------|
B----------------------------------                  --------------------------------|
G----------------------------------                  --------------------------------|
D---5-5-5-5-8-5-5-8-5-8-5-5-8-5-5-5                 3-3-3-3-6-3-3-6-3-6-3-3-6-3-3-3--|
A---5-5-5-5-8-5-5-8-5-8-5-5-8-5-5-5                 3-3-3-3-6-3-3-6-3-6-3-6-3-3-3-3--|
D---5-5-5-5-8-5-5-8-5-8-5-5-8-5-5-5      x2      3-3-3-3-6-3-3-6-3-6-3-6-3-3-3-3-----|  x2

E-----------------------------------                ---------------------------------|
B----------------------------------                  --------------------------------|
G----------------------------------                  --------------------------------|
D---5-5-5-5-8-5-5-8-5-8-5-5-8-5-5-5                 4-4-4-4-7-4-4-7-4-7-4-4-7-4-4-4--|
A---5-5-5-5-8-5-5-8-5-8-5-5-8-5-5-5                 4-4-4-4-7-4-4-7-4-7-4-4-7-4-4-4--|
D---5-5-5-5-8-5-5-8-5-8-5-5-8-5-5-5      x2      4-4-4-4-7-4-4-7-4-7-4-4-7-4-4-4-----| x2

PRE-CHORUS


E--------------------------------------------------------------|
B--------------------------------------------------------------|
G---0-0-0-0-2-3-2-0-2-3-2-0-5-5-5-3----2---2----2-2-2-3-2-2----|
D----------------------------------3-3--3-3-3-3--3-------3-----|
A--------------------------------------------------------------|
D--------------------------------------------------------------|   x2


CHORUS


E-------------------------------------------------------------------|
B-------------------------------------------------------------------|
G---7-7-7-7-7-7-7-7-7-7-7-7-5-5-5-5-3-3-3-3-3-3-3-3-3-3-3-3-3-3-3-3-|
D---7-7-7-7-7-7-7-7-7-7-7-7-5-5-5-5-3-3-3-3-3-3-3-3-3-3-3-3-3-3-3-3-|
A-------------------------------------------------------------------|
D-------------------------------------------------------------------|

E--------------------------------------------------------------------|
B--------------------------------------------------------------------|
G---5-5-5-5-5-5-5-5-5-5-5-5-3-3-3-3-0-0-0-0-0-0-0-0-0-0-0-0-0-0-0-0--|
D---5-5-5-5-5-5-5-5-5-5-5-5-3-3-3-3-0-0-0-0-0-0-0-0-0-0-0-0-0-0-0-0--|
A--------------------------------------------------------------------|
D--------------------------------------------------------------------| 
x2 (after second time, pick-slide)

VERSE 2


E----------------------------------            -----------------------------------|
B----------------------------------           ------------------------------------|
G----------------------------------           ------------------------------------|
D---5-5-5-5-8-5-5-8-5-8-5-5-8-5-5-5           ---3-3-3-3-6-3-3-6-3-6-3-6-3-3-3-3--|
A---5-5-5-5-8-5-5-8-5-8-5-5-8-5-5-5           ---3-3-3-3-6-3-3-6-3-6-3-6-3-3-3-3--|
D---5-5-5-5-8-5-5-8-5-8-5-5-8-5-5-5   x2   ---3-3-3-3-6-3-3-6-3-6-3-6-3-3-3-3-----| x2

E----------------------------------            -----------------------------------|
B----------------------------------           ------------------------------------|
G----------------------------------           ------------------------------------|
D---5-5-5-5-8-5-5-8-5-8-5-5-8-5-5-5           ---3-3-3-3-6-3-3-6-3-6-3-6-3-3-3-3--|
A---5-5-5-5-8-5-5-8-5-8-5-5-8-5-5-5           ---3-3-3-3-6-3-3-6-3-6-3-6-3-3-3-3--|
D---5-5-5-5-8-5-5-8-5-8-5-5-8-5-5-5   x2   ---3-3-3-3-6-3-3-6-3-6-3-6-3-3-3-3-----| x2

E-----------------------------------------|
B-----------------------------------------|
G-----------------------------------------|
D---8-8-8-8-11-8-8-11-8-11-8-8-11-8-8-8---|
A---8-8-8-8-11-8-8-11-8-11-8-8-11-8-8-8---|
D---8-8-8-8-11-8-8-11-8-11- 8-8-11-8-8-8--| x2

E----------------------------------------|
B----------------------------------------|
G----------------------------------------|
D---7-7-7-7-10-7-7-10-7-10-7-7-10-7-7-7--|
A---7-7-7-7-10-7-7-10-7-10-7-7-10-7-7-7--|
D---7-7-7-7-10-7-7-10-7-10-7-7-10-7-7-7--| x2

E-----------------------------------------|
B-----------------------------------------|
G-----------------------------------------|
D---8-8-8-8-11-8-8-11-8-11-8-8-11-8-8-8---|
A---8-8-8-8-11-8-8-11-8-11-8-8-11-8-8-8---|
D---8-8-8-8-11-8-8-11-8-11- 8-8-11-8-8-8--| x2

E----------------------------------------|
B----------------------------------------|
G----------------------------------------|
D---7-7-7-7-10-7-7-10-7-10-7-7-10-7-7-7--|
A---7-7-7-7-10-7-7-10-7-10-7-7-10-7-7-7--|
D---7-7-7-7-10-7-7-10-7-10-7-7-10-7-7-7--| x2

[CHORUS]


SOLO

E---4----4h5p0-7-4-0-7-4-0------0-4-7--14-13---------------------------------|
B-------------------------------------------14-10-10-10-12-12-12-14----15-14-|
G------------------------------3---------------------------------------------|
D--------------------------3-5-----------------------------------------------|
A----------------------------------------------------------------------------|
D----------------------------------------------------------------------------|


E--------------------------------------------------|
B---7--10-7-5--7-5-2-3-3-3-5-5-5-7---6h7h9p6-5-8-5-|
G--------------------------------------------------|
D--------------------------------------------------|
A--------------------------------------------------|
D--------------------------------------------------|


Then repeat the chorus twice and then you're done! Yay!
Tap to rate this tab
# A B C D E F G H I J K L M N O P Q R S T U V W X Y Z