Song name
# A B C D E F G H I J K L M N O P Q R S T U V W X Y Z

Misc Unsigned Bands - Office Antics - Man In The Golden Suit tab

-------The Man In The Golden Suit Tab--------

TUNING: standard

intro/Verse

e ----------------------------------------------------------| x2
B ----------------------------------------------------------|
G ----7-----------------------------------------------------|
D ----7---7---5---------------------------------------------|
A ----5---7---5---------------------------------------------|
E --------5---3---------------------------------------------|


Chorus
e --------------------------------------------------------| x4
B --------------------------------------------------------|
G ---7777-------------------------------------------------|
D ---7777----7777----777---333----------------------------|
A ---5555----7777----777---333----------------------------|
E -----------5555----999---555----------------------------|


Ending
e --------------------------------------------------------------|
B --------------------------------------------------------------|
G --------7--------7--------------------------------------------|
D -----7----7----7----7--------7------------9-----------5-------|
A --5---------5---------5----7----7-------9---9-------5---5-----|
E -------------------------5---------5--7-------7---3-------3---|


*Office Antics*
Tap to rate this tab
# A B C D E F G H I J K L M N O P Q R S T U V W X Y Z