Song name
# A B C D E F G H I J K L M N O P Q R S T U V W X Y Z

Misc Unsigned Bands - The Bread To Poop Experience - Ghost Rider tab

Awesome song by Bread To Poop Experience. Local band so you've probably haven't heard 
song or be able to find it on iTunes, etc. or find it on a CD. Good song for beginners. 
really fun to play.

Play this kind of slow.

e|--------------------------------------------------------------------------|
b|--------------------------------------------------------------------------|
g|--------------------------------------------------------------------------|
d|------------------------------0-3-0----------------0-3-5-3-0--------------|
a|----------------------3-----2--------------3-----2------------------------|
D|-12/1-2-2-3-3-2-2-3-3---2-2------------3-3---2-2--------------------------|
  ^__________________________________^   ^ ___________________^
                 Intro                            Verse

Pick slide 6th string towards guitar's head, then play this fast.

e|--------------------------------------------------------------------------|
b|--------------------------------------------------------------------------|
g|--------------------------------------------------------------------------|
d|--------------------------------------------------------------------------|
a|---------------------------------3-------------------------2-2-3-2~~/17---|
D|-0000000000000000000000000000000---00000000000000000000000---2-3-2~~/17---|
  ^_____________________________________________________________________^
                                Pre-Solo

Play this fast.
                                       |   Play this 4 times  |
e|-----------------------------------------------9--------------------------|
b|-----------------------------6-10~~~-10p9-10p9---10p9-10p9----------------|
g|-9b-9-7-6----------------6-9-------------------------------10-------------|
d|----------9-8-6-9~~~-6-9--------------------------------------------------|
a|--------------------------------------------------------------------------|
D|--------------------------------------------------------------------------|
  ^_______________________________Solo_________________________^

  | Play this 4 times |
e|--------------------------------------------------------------------------|
b|--------------------------------------------------------------------------|
g|--------------------------------------------------------------------------|
d|---------2---------------------0~~/\~~~~/\~~~~----------------------------|
a|-2-1-2-1-2-2-1-2-1-0--1/14-----0~/~~\~~/~~\~~~----------------------------|
D|-2-1-2-1---2-1-2-1-0--1/14-----0/~~~~\/~~~~\~~----------------------------|
  ^_____Part After Solo_____^    ^____Outro_____^


Here's the order of everything:
Intro (x1)
Verse (x3)
Pre-Solo (x1)
Solo (x1)
Part After Solo (x1)
Verse (x3)
Outro (x1)

Legend:
p=pull off
/\/\/\=go crazy with the whammy bar
~=let it ring
/=slide to

Band's Website: http://breadtopoop.wetpaint.com/
Tap to rate this tab
# A B C D E F G H I J K L M N O P Q R S T U V W X Y Z