Song name
# A B C D E F G H I J K L M N O P Q R S T U V W X Y Z

Misc Unsigned Bands - Genocide - Genocide tab

-------------------------------------------------------------------------------
			     Genocide - Genocide
-------------------------------------------------------------------------------
Tabbed by:Genocide Band Members
Email:a_rabid_elephant@live.com

Tuning:Drop C

e|---------------------------------------------------------------------------|
B|-----9-7-9---7-9-----9-7-9---7-9-----9-7-9---7-9-----9-7-9---7-9------9-7-9|
G|---7-------7-------7-------7-------7-------7-------7-------7--------7------|
D|-0---------------0---------------0---------------0----------------0--------|
A|---------------------------------------------------------------------------|
C|---------------------------------------------------------------------------|

e|---------------------------------------------------------------------------|
B|---7-9-----9-7-9---7h9-9-----9-7-9---7h9-9---7~----------------------------|
G|-7-------7-------7---------7-------7-------7-------------------------------|
D|-------0-----------------0-------------------------------------------------|
A|---------------------------------------------------------------------------|
C|---------------------------------------------------------------------------|

e|---------------------------------------------------------------------------|
B|---------------------------------------------------------------------------|
G|---------------------------------------------------------------------------|
D|-9---7---7---7-7---5-5---5-5---4---4-5---9---7---7---7-7---5-5---5-5---4---|
A|-7---5-----5---5---3---3---3---2---2-3---7---5-----5---5---3---3---3---2---|
C|-----------------------------------.-.-------------------------------------|

e|---------------------------------------------------------------------------|
B|---------------------------------------------------------------------------|
G|-----------------------------------------------------The-drums-play-a------|
D|4-5---9---7---7---7-7---5-5---5-5---4---4-5~-------solo-right-here-but-----|
A|2-3---7---5-----5---5---3---3---3---2---2-3~-------you-don't-have-to-pause-|
C|.-.-------------------------------------.----------while-playing-alone-----|

e|---------------------------------------------------------------------------|
B|-play-this-while-----------------------------------------------------------|
G|-the-drum-solo-is----------------------------------------------------------|
D|-playing----------------5---5---6---6---0~---------------------------------|
A|--------------------------3---3---3---3-0~---------------------------------|
C|----------------------------------------0~---------------------------------|

e|---------------------------------------------------------------------------|
B|-----9-7-9---7-9-----9-7-9---7-9-----9-7-9---7-9-----9-7-9---7-9------9-7-9|
G|---7-------7-------7-------7-------7-------7-------7-------7--------7------|
D|-0---------------0---------------0---------------0----------------0--------|
A|---------------------------------------------------------------------------|
C|---------------------------------------------------------------------------|

e|---------------------------------------------------------------------------|
B|---7-9-----9-7-9---7h9-9-----9-7-9---7h9-9---7~----------------------------|
G|-7-------7-------7---------7-------7-------7-------------------------------|
D|-------0-----------------0-------------------------------------------------|
A|---------------------------------------------------------------------------|
C|---------------------------------------------------------------------------|

e|---------------------------------------------------------------------------|
B|---------------------------------------------------------------------------|
G|---------------------------------------------------------------------------|
D|-9-9-9-9-7--7--7-7-7-5-5-5-5-9-9-9-9-7--7--7-7-7-5-5-5-5-9-9-9-9-7--7--7-7-|
A|-7-7-7-7-5--5--5-5-5-3-3-3-3-7-7-7-7-5--5--5-5-5-3-3-3-3-7-7-7-7-5--5--5-5-|
C|---------.--.------------------------.--.------------------------.--.------|

e|---------------------------------------------------------------------------|
B|---------------------------------------------------------------------------|
G|---------------------------------------------------------------------------|
D|-7-5-5-5-5-9-9-9-9-7~-7~-7-7-7-5-5-5-5-9-9-9-9-7~-7~-7-7-7-5-5-5-5-9-9-9-9-|
A|-5-3-3-3-3-7-7-7-7-5~-5~-5-5-5-3-3-3-3-7-7-7-7-5~-5~-5-5-5-3-3-3-3-7-7-7-7-|
C|---------------------------------------------------------------------------|

e|---------------------------------------------------------------------------|
B|---------------------------------------------------------------------------|
G|---------------------------------------------------------------------------|
D|-7~-7~-7-7-7-5-5-5-5-------------------------------------------------------|
A|-5~-5~-5-5-5-3-3-3-3-------------------------------------------------------|
C|---------------------------------------------------------------------------|

e|-7/12--11--10--9--8--7h8h9h7h8h9h7h8h9h7h8h9h8h9h8h7h9h8h7h9h8h7h9h8h7-7/12|
B|---------------------------------------------------------------------------|
G|---------------------------------------------------------------------------|
D|---------------------------------------------------------------------------|
A|---------------------------------------------------------------------------|
C|---------------------------------------------------------------------------|

e|-12/15--12-10-9-10-9-7-9-7-5-7-5-4-5-4-5-4-0~------------------------------|
B|---------------------------------------------------------------------------|
G|---------------------------------------------------------------------------|
D|---------------------------------------------------------------------------|
A|---------------------------------------------------------------------------|
C|---------------------------------------------------------------------------|
e|---------------------------------------------------------------------------|
B|-----9-7-9---7-9-----9-7-9---7-9-----9-7-9---7-9-----9-7-9---7-9------9-7-9|
G|---7-------7-------7-------7-------7-------7-------7-------7--------7------|
D|-0---------------0---------------0---------------0----------------0--------|
A|---------------------------------------------------------------------------|
C|---------------------------------------------------------------------------|

e|---------------------------------------------------------------------------|
B|---7-9-----9-7-9---7h9-9-----9-7-9---7h9-9---7~----------------------------|
G|-7-------7-------7---------7-------7-------7-------------------------------|
D|-------0-----------------0-------------------------------------------------|
A|---------------------------------------------------------------------------|
C|---------------------------------------------------------------------------|

e|---------------------------------------------------------------------------|
B|---------------------------------------------------------------------------|
G|---------------------------------------------------------------------------|
D|-9---7---7---7-7---5-5---5-5---4---4-5---9---7---7---7-7---5-5---5-5---4---|
A|-7---5-----5---5---3---3---3---2---2-3---7---5-----5---5---3---3---3---2---|
C|-----------------------------------.-.-------------------------------------|

e|---------------------------------------------------------------------------|
B|---------------------------------------------------------------------------|
G|-----------------------------------------------------The-drums-play-a------|
D|4-5---9---7---7---7-7---5-5---5-5---4---4-5~-------solo-right-here-but-----|
A|2-3---7---5-----5---5---3---3---3---2---2-3~-------you-don't-have-to-pause-|
C|.-.-------------------------------------.----------while-playing-alone-----|

e|---------------------------------------------------------------------------|
B|-play-this-while-----------------------------------------------------------|
G|-the-drum-solo-is----------------------------------------------------------|
D|-playing----------------5---5---6---6---0~---------------------------------|
A|--------------------------3---3---3---3-0~---------------------------------|
C|----------------------------------------0~---------------------------------|

e|---------------------------------------------------------------------------|
B|-----9-7-9---7-9-----9-7-9---7-9-----9-7-9---7-9-----9-7-9---7-9------9-7-9|
G|---7-------7-------7-------7-------7-------7-------7-------7--------7------|
D|-0---------------0---------------0---------------0----------------0--------|
A|---------------------------------------------------------------------------|
C|---------------------------------------------------------------------------|

e|---------------------------------------------------------------------------|
B|---7-9-----9-7-9---7h9-9-----9-7-9---7h9-9---7~----------------------------|
G|-7-------7-------7---------7-------7-------7-------------------------------|
D|-------0-----------------0-------------------------------------------------|
A|---------------------------------------------------------------------------|
C|---------------------------------------------------------------------------|

e|---------------------------------------------------------------------------|
B|---------------------------------------------------------------------------|
G|---------------------------------------------------------------------------|
D|-9-9-9-9-7--7--7-7-7-5-5-5-5-9-9-9-9-7--7--7-7-7-5-5-5-5-9-9-9-9-7--7--7-7-|
A|-7-7-7-7-5--5--5-5-5-3-3-3-3-7-7-7-7-5--5--5-5-5-3-3-3-3-7-7-7-7-5--5--5-5-|
C|---------.--.------------------------.--.------------------------.--.------|

e|---------------------------------------------------------------------------|
B|---------------------------------------------------------------------------|
G|---------------------------------------------------------------------------|
D|-7-5-5-5-5-9-9-9-9-7~-7~-7-7-7-5-5-5-5-9-9-9-9-7~-7~-7-7-7-5-5-5-5-9-9-9-9-|
A|-5-3-3-3-3-7-7-7-7-5~-5~-5-5-5-3-3-3-3-7-7-7-7-5~-5~-5-5-5-3-3-3-3-7-7-7-7-|
C|---------------------------------------------------------------------------|

e|---------------------------------------------------------------------------|
B|---------------------------------------------------------------------------|
G|---------------------------------------------------------------------------|
D|-7~-7~-7-7-7-5-5-5-5-------------------------------------------------------|
A|-5~-5~-5-5-5-3-3-3-3-------------------------------------------------------|
C|---------------------------------------------------------------------------|

e|-7/12--11--10--9--8--7h8h9h7h8h9h7h8h9h7h8h9h8h9h8h7h9h8h7h9h8h7h9h8h7-7/12|
B|---------------------------------------------------------------------------|
G|---------------------------------------------------------------------------|
D|---------------------------------------------------------------------------|
A|---------------------------------------------------------------------------|
C|---------------------------------------------------------------------------|

e|-12/15--12-10-9-10-9-7-9-7-5-7-5-4-5-4-5-4-0~-12-10-9-10-9-7-9-7-5-7-5-4-5-4-5-4-0~|
B|-----------------------------------------------------------------------------------|
G|-----------------------------------------------------------------------------------|
D|-----------------------------------------------------------------------------------|
A|-----------------------------------------------------------------------------------|
C|-----------------------------------------------------------------------------------|

e|-----------|
B|-----------|
G|---7/0-----|
D|---7/0-----|
A|---7/0-----|
C|---7/0-----|

| /  slide up
| \  slide down
| h  hammer-on
| p  pull-off
| ~  vibrato
| +  harmonic
| x  Mute note
===============================================================================
Tap to rate this tab
 
# A B C D E F G H I J K L M N O P Q R S T U V W X Y Z