Song name
# A B C D E F G H I J K L M N O P Q R S T U V W X Y Z

Misc Unsigned Bands - Washington Redskins Marching Band - Hail To The Redskins tab

-------------------------------------------------------------------------------
	     HAIL TO THE REDSKINS - Washington Redskins Marching Band
-------------------------------------------------------------------------------
Tabbed by: Bryan S.
Email: stabbedabbe@yahoo.com

Tuning: Standard

e|---------------------------------------------------------------------------|
B|-------------------------------------7-------------------------------------|
G|-----------7---------------------7-----7-9-7-7-----------------------------|
D|---7-6-7-9-----7---7-----7-6-7-9-------------------------------------------|
A|-----------------9---7-----------------------------------------------------|
E|---------------------------------------------------------------------------|

e|---------------------------------------------------------------------------|
B|---------------------------------------------------------------------------|
G|---------------------------------------------------------------------------|
D|---7-7-7-------------------7-7-7-------------------------------------------|
A|---------9-7-7-7-6-7-7-----------9-7-7-7-6-7-7-----------------------------|
E|---------------------------------------------------------------------------|

e|---------------------------------------------------------------------------|
B|---------------------------------------------------------------------------|
G|----------------------6----------------------------------------------------|
D|----------6--6-7-7-9----7-6---7--------------------------------------------|
A|---7-9--9-------------------9---7------------------------------------------|
E|---------------------------------------------------------------------------|


e|---------------------------------------------------------------------------|
B|-------------------------------------7-------------------------------------|
G|-----------7---------------------7-----7-9-7-7-----------------------------|
D|---7-6-7-9-----7---7-----7-6-7-9-------------------------------------------|
A|-----------------9---7-----------------------------------------------------|
E|---------------------------------------------------------------------------|

This is my first tab, so if there's anything you see wrong let me know.  Thanks!  Go Skins!
Tap to rate this tab
 
# A B C D E F G H I J K L M N O P Q R S T U V W X Y Z