Song name
# A B C D E F G H I J K L M N O P Q R S T U V W X Y Z

Misc Unsigned Bands - Horsell Common - Everlasting tab

-------------------------------------------------------------------------------
			     SONG NAME - Band Name
-------------------------------------------------------------------------------
Tabbed by:
Email:

Tuning:

e|------------------------------------------------------------------------|
B|------------------------------------------------------------------------|
G|-5-5-5-5-5-----------------------------------5-5-5-5-5------------------|
D|-5-5-5-5-5--7-7-7-7-7--5-5-5-5-5--5-5-5-5-5--5-5-5-5-5--7-7-7-7-7-------|
A|-3-3-3-3-3--7-7-7-7-7--5-5-5-5-5--5-5-5-5-5--3-3-3-3-3--7-7-7-7-7-------|
E|------------5-5-5-5-5--3-3-3-3-3--3-3-3-3-3-------------5-5-5-5-5-------|


e|------------------------------------------------------------------------|
B|------------------------------------------------------------------------|
G|-10-10-10-10-10--10-10-10-10-10-----------------------------------------|
D|-10-10-10-10-10--10-10-10-10-10-----------------------------------------|
A|-8--8--8--8--8---8--8--8--8--8------------------------------------------|
E|------------------------------------------------------------------------|
http://www.myspace.com/horsellcommon
Tap to rate this tab
 
# A B C D E F G H I J K L M N O P Q R S T U V W X Y Z