Song name
# A B C D E F G H I J K L M N O P Q R S T U V W X Y Z

Misc Unsigned Bands - Mother Of Mercy - Pulled Under tab

mother of mercy is a local, awesome, band from the philly area. this song is bomb

this song can also be played in standard tuning, but i find it easier to play it in drop D


sorry but i dont have the solo yet.

~    let it ring
...  strum multiple times

E|--------------------|
B|--------------------|
G|--------------------|
D|-----------      ---|x3
A|-8-7-5-2~-----------|
D|-8-7-5-2~-----------|
         ^^ let it ring


E|---------------------------------|
B|---------------------------------|
G|---------------------------------|              x 2
D|---------------------------------|
A|-9-7-5-9-7-12-9-7-5...-8-7-5-2~--|
D|-9-7-5-9-7-12-9-7-5...-8-7-5-2~--|
                    ^^^ figure out how many
                    times you stum the barred 5.

on the second repeat of the tab directly above, do this at the end

E|-------|
B|-------|
G|-------|
D|-------|
A|-222-2~
D|-222-2~
   ^^^ ^ play open, let ring
palm mute

thats basically the whole song minus the solo.have fun.
Tap to rate this tab
# A B C D E F G H I J K L M N O P Q R S T U V W X Y Z