Song name
# A B C D E F G H I J K L M N O P Q R S T U V W X Y Z

Misc Unsigned Bands - Earth To You - Ordinary tab

EARTH TO YOU
ORDINARY

HOPE YOU LIKE
SWEET SONG!!!!!!!!!!!!!


INTRO
e----5--5------5---5--5------------------5-5b------------/
B--6--6-----5---5-----6--X4--------------5-5-------------/
G-7-7--7---7-7---7----7----------------------------------/
D7--------7-----------7----------------------------------/
A--------------------------------------------------------/
E--------------------------------------------------------/

VERSE 1

e5-5-7-7-9-9-7-5-5-7-7-9-9-7-5-5-5-7-7-9-9-7-5-5-7-7-9-9-9-9-9-9-9/
B5-5-5-5-5-5-5-5-5-5-5-5-5-5-5-5-5-5-5-5-5-5-5-5-5-5-5-5-5-5-5-5-5/
G-----------------------------------------------------------------/
D-----------------------------------------------------------------/
A-----------------------------------------------------------------/
E-----------------------------------------------------------------/

e9-9-10-10-12-12-10-9-9-10-10-12-12-10-9-9-10-10-12-12-10-9/
B9-9-9--9--9--9--9--9-9--9-9--9--9--9--9-9--9--9--9--9--9-9/
G----------------------------------------------------------/
D----------------------------------------------------------/
A----------------------------------------------------------/
E----------------------------------------------------------/

e9-9-10-10-12-12-10-12------15-15-15-----------------------/
B9-9--9--9--9--9--9--9-------X--X--X-----------------------/
G----------------------------------------------------------/
D----------------------------------------------------------/
A----------------------------------------------------------/
E----------------------------------------------------------/

Chorus
NO GUITAR

VERSE 2

e5-5-7-7-9-9-7-5-5-7-7-9-9-7-5-5-5-7-7-9-9-7-5-5-7-7-9-9-9-9-9-9-9/
B5-5-5-5-5-5-5-5-5-5-5-5-5-5-5-5-5-5-5-5-5-5-5-5-5-5-5-5-5-5-5-5-5/
G-----------------------------------------------------------------/
D-----------------------------------------------------------------/
A-----------------------------------------------------------------/
E-----------------------------------------------------------------/

e9-9-10-10-12-12-10-9-9-10-10-12-12-10-9-9-10-10-12-12-10-9/
B9-9-9--9--9--9--9--9-9--9-9--9--9--9--9-9--9--9--9--9--9-9/
G----------------------------------------------------------/
D----------------------------------------------------------/
A----------------------------------------------------------/
E----------------------------------------------------------/

e9-9-10-10-12-12-10-12------15-15-15-----------------------/
B9-9--9--9--9--9--9--9-------X--X--X-----------------------/
G----------------------------------------------------------/
D----------------------------------------------------------/
A----------------------------------------------------------/
E----------------------------------------------------------/

Chorus

e-------------------------------------------------------------------------/
B-------------5-7-9-9-7-5-5------------------------------5-7-9-9-7-9-9-9-9/
G-----5-7-5-7------------7-7--7-7-7-5------------5-7-5-7------------------/
D-5/s7--------------------------------7-7-7--5/s7-------------------------/
A-------------------------------------------------------------------------/
E-------------------------------------------------------------------------/

e--------------------------------------------------------------------------/
B--7/9/7-7/9/7-7/9/7-7/9/7-7/9/7-------------------------------------------/
G-------------------------------7/9/7-7/9/7-7/9/7-7/9/7-7/9/7--------------/
D----------------------------------------------------------7/9/7-7/9/7-----/
A--------------------------------------------------------------------------/
E--------------------------------------------------------------------------/

Verse 3

e5-5-7-7-9-9-7-5-5-7-7-9-9-7-5-5-5-7-7-9-9-7-5-5-7-7-9-9-9-9-9-9-9/
B5-5-5-5-5-5-5-5-5-5-5-5-5-5-5-5-5-5-5-5-5-5-5-5-5-5-5-5-5-5-5-5-5/
G-----------------------------------------------------------------/
D-----------------------------------------------------------------/
A-----------------------------------------------------------------/
E-----------------------------------------------------------------/

e9-9-10-10-12-12-10-9-9-10-10-12-12-10-9-9-10-10-12-12-10-9/
B9-9-9--9--9--9--9--9-9--9-9--9--9--9--9-9--9--9--9--9--9-9/
G----------------------------------------------------------/
D----------------------------------------------------------/
A----------------------------------------------------------/
E----------------------------------------------------------/

e9-9-10-10-12-12-10-12------15-15-15-----------------------/
B9-9--9--9--9--9--9--9-------X--X--X-----------------------/
G----------------------------------------------------------/
D----------------------------------------------------------/
A----------------------------------------------------------/
E----------------------------------------------------------/

Outro
e----5--5------5---5--5------------------/
B--6--6-----5---5-----6--X4--------------/
G-7-7--7---7-7---7----7------------------/
D7--------7-----------7------------------/
A----------------------------------------/
E----------------------------------------/
Tap to rate this tab
# A B C D E F G H I J K L M N O P Q R S T U V W X Y Z