Song name
# A B C D E F G H I J K L M N O P Q R S T U V W X Y Z

Misc Unsigned Bands - The Holealien - Rockabilly Idiot tab

This is a song I made up for fun. Anyways, here it is.

Guitar
e|------------------------------------------------|
b|------------------------------------------------|
g|------------------------------------------------|
d|-----------5------------------------------------|
a|-5-7-5-7-5--------------------------------------|
e|------------------------------------------------|


Bass
g|------------------------------------------------|
d|-----------5------------------------------------|
a|-5-7-5-7-5--------------------------------------|
e|------------------------------------------------|


Guitar
e|------------------------------------------------|
b|------------------------------------------------|
g|------------------------------------------------|
d|------------------------3---3---3---------------|
a|---3---3---3--------------3---3---3-3-----------|
e|-3---3---3---3-3--------------------------------|


Bass
g|-----------------------------6-6----------------|
d|-------------------3---3---3--------------------|
a|---3---3---3---3-3---3---3----------------------|
e|-3---3---3---3----------------------------------|

It repeats itself.
Tap to rate this tab
# A B C D E F G H I J K L M N O P Q R S T U V W X Y Z