Guitaretab - guitar tabs
Song name
# A B C D E F G H I J K L M N O P Q R S T U V W X Y Z

Misc Unsigned Bands - Private Wasabi - Fragment Of My Heart tab

Hi,
this was tabbed by Max Crane the guitar player from  Private Wasabi himself
to listen to the song go to our myspace - http://www.myspace.com/privatewasabi
message me at maxlccrane@yahoo.com
with any questions

INTRO - slightly palm muted
e----------------------------------------------------|
b----------------------------------------------------|
g----------------------------------------------------|
d----0--2---0--2---0--2---0--2---0--2---0--2---0--2--|
a--3--3---3--3---3--3---3--3---3--3---3--3---3--3----|
e----------------------------------------------------|

e-------------------------------------------|
b-------------------------------------------|
g-------------------------------------------|   X2
d--77777777-55555555-33333333-55555555------|
a--77777777-55555555-33333333-55555555------|
e--55555555-33333333-11111111-33333333------|


VERSE-
chords

CFGAmiGFA
CFGAmiGFA
CFGAmiGFA
CFGAmiGFA


You can also play the intro riff over the verse but not palm muted

CHORUS- distortion
chords(same as verse)

CFGAmiGFA
CFGAmiGFA
CFGAmiGFA
CFGAmiGFA

1st BRIDGE-(after second chorus)

AAAAAA---GGGG----FE-
[ Tab from: http://www.guitaretab.com/m/misc-unsigned-bands/109740.html ]
SOLO-
Same chords as chorus

CFGAmiGFA
CFGAmiGFA
CFGAmiGFA
CFGAmiGFA

2nd BRIDGE-(after solo)

the whole 2nd bridge is just the C chord
and the first little riff of the intro completely palm muted

e---------------------------------------------------------------|
b---------------------------------------------------------------|
g---------------------------------------------------------------|
d----0--2---0--2---0--2---0--2---0--2---0--2---0--2-------------|
a--3--3---3--3---3--3---3--3---3--3---3--3---3--3---------------|
e---------------------------------------------------------------|


OUTRO-
Just play this riff and end on a c chord
e---------------------------------------------------------------|
b---------------------------------------------------------------|
g---------------------------------------------------------------|
d----0--2---0--2---0--2---0--2---0--2---0--2---0--2-------------|
a--3--3---3--3---3--3---3--3---3--3---3--3---3--3---------------|
e---------------------------------------------------------------|


heres the order of everything

intro
verse
chorus
verse
chorus
1st bridge
solo
2nd bridge
chorus
chorus
outro

good luck
Related for Private Wasabi - Fragment Of My Heart tab