Song name
# A B C D E F G H I J K L M N O P Q R S T U V W X Y Z

Misc Unsigned Bands - Hand Of The Daedra - Perfect Is The Worst tab

Tuning - Drop B

Clean 1a (played 1st, 2nd and 4th time Clean 1b (played on 3rd time round)
Db---------------------------------│------------------------------------------------|
Ab---------------------------------│------------------------------------------------|
E----------------------------------│------------------------------------------------|
B-------8--7--5--3--2-2/3-3--------│--------8--7----8--10----8--7/8----8---8--------|
Gb---10--8--7--5--3-3/5-5----------│------10--8--10--12--10--8/10--10-10------------|
B---0------------------------------│-0----------------------------------------------|


Clean 2

Db-------------------------------------------------|
Ab-------------------------------------------------|
E--------------------------------------------------|
B---------------------------7--------8--------10---|
Gb------7-8-10-----7-8------7-8-----7-8------------|
B---0--------------0---------0--------0------------|

Distortion 1

Db----------------------------------------------------------------------------|
Ab--------------------------------------------------------------------5-5h6---|
E----------------------------------------------------------------------5-5h7--|(pinch harmonic)
B-------8-----7----5----2------2-2/3-3----------------------------------------|
Gb----10----8----7----3-------3-3/5-5-----------------------------------------|
B 0-0-----0----0----0----0-0------------0----0-0-0-0-0-00---------------------|

Distortion 2a

Db-----------------------------------------------------------------------------|
Ab-----------------------------------------------------------------------------|
E-------------------------------------------------------------7----------------|
B---------------------------7-------------8------------10----10p8p7p-----------|
Gb----7-8-10------7--8---------7--8---------7--8-------------------10p8p7p-----|
B-0-0--0-0----0-0--0--0--0-0--0--0--0-0---0--0-----------------------------10--|

Distortion 2b (the harmony)

Db-------------------------------------------------------------------------------------------|
Ab-------------------------------------------------------------------------------------------|
E------------------------------------------------------------------------------10------------|
B------------------------------------10-------------12---------------13--------13p12p10------|
Gb---10-12-13------10--12----------10--12---------10--12---------------------------13p12p10--|
B-0-0---0----0----0-0---0---0-----0-0---0---0-----0-0---0---0--------------------------------|

Bridge 1a (played 1st 2 times the first two chords distorted, and the open note clean)

Db---------------------------|
Ab---------------------------|
E----------------------------|
B---10---10---7--------------|
Gb-8-----8-----0-------------|
B---8-----7-----0------------|

Bridge 1b (played last 2 times, this time chords clean, and opens distorted)

Db------------------------------------------|
Ab------------------------------------------|
E-------------------------------------------|
B----10---10--------------------------------|
Gb--8-----8---------------------------------|
B----8-----7-----0-0--0-0-0-0-0-0-----------| (Listen to the song to get the pattern)

Bridge 2 (all distorted)

Db----------------------------------------------|
Ab----------------------------------------------|
E-----------------------------------------------|
B----10---10------------------------------------|
Gb--8-----8-----0-0--0-0-0-0-0-0----------------|
B----8-----7-----0-0--0-0-0-0-0-0---------------| (Listen to the song to get the pattern)

Chorus 1

Db------------------------------------|
Ab------------------------------------|
E-------------------------------------|
B-----10------10------7---------------|
Gb-------8--------7-----5---0-0-0-0---|
B---0------0--------0--------0-0-0-0--| (Listen to the song to get the pattern)

Chorus 2 This part played on the 4th time
Db-----------------------------------------l----------------------------------------|
Ab---------------------------------8h11-l----------------------11p8-----------------|
E---------------------------7h10---------l-----------------------------10p7---------|
B----0-0h1p0h1h4---------------------l--0-0h1p0h1h4---------------------------------|
Gb--0-0h1p0h1h4---------------------l--0-0h1p0h1h4----------------------------------|
B----0-0h1p0h1h4---------------------l--0-0h1p0h1h4---------------------------------|

During the breakdown/beatdown alternate between these two

Thats it enjoy!

You Can Hear The Song Here:
www.myspace.com/handofthedaedra
Official Myspace Website

Bebo Website:
http://www.bebo.com/hotdmusic
Tap to rate this tab
# A B C D E F G H I J K L M N O P Q R S T U V W X Y Z