Song name
# A B C D E F G H I J K L M N O P Q R S T U V W X Y Z

Misc Unsigned Bands - Anarchy Christ - Beethovens Last Tear tab

Beethoven's last tear

This is my song tht I made hope you enjoy!!!


Tuning: standard
b=bend


E---12-11-12-11-12--------------------------------------------|
B------------------------12-15-13---------------------12b-----|
G--------------------------------------14------------14-------|
D------------------------------------------------14-----------|
A---------------------------------------12-15-----------------|
E------------------------------------12-----------------------|


E--------------------|
B------------12-13b--|
G----------13--------|
D--------14----------|
A------11------------|
E---12---------------|


E---12-11-12-11-12-------------------------------------------|l
B------------------------12-15-13---------------------12b----|
G--------------------------------------14------------14------|
D------------------------------------------------14----------|
A---------------------------------------12-15----------------|
E------------------------------------12----------------------|


--------------------|
------------12-13b--|
----------13--------|
--------14----------|
------11------------|
---12---------------|


E---9-8-9-8-9---------------------------------------------------------------------------|l
B----------------9--12--10-----------------------9b-------------------9--10b------------|l
G----------------------------11----------------11---------------11----------------------|l
D-------------------------------------------11---------------11-------------------------|l
A----------------------------------9--12----------------8-------------------------------|l
E-------------------------------9--------------------9----------------------------------|l


E---9-8-9-8-9---------------------------------------------------------------------------|l
B----------------9--12--10-----------------------9b----------------9--10b---------------|l
G----------------------------11----------------11---------------11----------------------|l
D---------------------------------------------11---------------11-----------------------|l
A--------------------------------------9--12----------------8---------------------------|l
E------------------------------------9--------------------9-----------------------------|l


E---6-5-6-5-6-------------------------------------------------------------------|l
B----------------6--9--7-------------------6b------------6--7b------------------|l
G-------------------------8---------------8--------------8----------------------|l
D----------------------------------------8--------------8-----------------------|l
A----------------------------------6--9--------------5--------------------------|l
E--------------------------------6------------------6---------------------------|l


E---6-5-6-5-6-------------------------------------------------------------------|l
B----------------6--9--7-------------------6b------------6--7b------------------|l
G-------------------------8---------------8--------------8----------------------|l
D----------------------------------------8--------------8-----------------------|l
A----------------------------------6--9--------------5--------------------------|l
E--------------------------------6------------------6---------------------------|l


E---3-2-3-2-3-------------------------------------------------------------------|l
B----------------3--6--4----------------3b----------3--4b-----------------------|l
G-------------------------5------------5------------5---------------------------|l
D-------------------------------------5------------5----------------------------|l
A-------------------------------3--6-------------2------------------------------|l
E-----------------------------3-----------------3-------------------------------|l


E---3-2-3-2-3-------------------------------------------------------------------|l
B----------------3--6--4----------------3b----------3--4b-----------------------|l
G-------------------------5------------5------------5---------------------------|l
D-------------------------------------5------------5----------------------------|l
A-------------------------------3--6-------------2------------------------------|l
E-----------------------------3-----------------3-------------------------------|l
Tap to rate this tab
 
# A B C D E F G H I J K L M N O P Q R S T U V W X Y Z