Song name
# A B C D E F G H I J K L M N O P Q R S T U V W X Y Z

Misc Unsigned Bands - Autoplay Conspiracy - My Illustrated Dream tab

Help us improve GuitareTab! Take a short survey!
Autoplay Conspiracy - My Illustrated Dream
Drop D
Guitar 1 only
(no other guitars in this song)

Intro
e|-------------------------------------------------------------------|
B|-------------------------------------------------------------------|
G|-------9-------9-------9-------9-------9-------9-------9-------9---|
D|---7-------7-------7-------7-------7-------7-------7-------7-------|
A|-9---9---9---9---9---9---9---9---7---7---7---7---7---7---7---7-----|
D|-------------------------------------------------------------------|

e|-------------------------------------------------------------------|
B|-------------------------------------------------------------------|
G|-------9-------9-------9-------9-------9-------9-------9-------9---|
D|---7-------7-------7-------7-------7-------7-------7-------7-------|
A|-9---9---9---9---9---9---9---9-------------------------------------|
D|---------------------------------7---7---7---7---7---7---7---7-----|

e|-------------------------------------------------------------------|
B|-------------------------------------------------------------------|
G|-------9-------9-------9-------9-------9-------9-------9-------9---|
D|---7-------7-------7-------7-------7-------7-------7-------7-------|
A|-------------------------------------------------------------------|
D|-9---9---9---9---9---9---9---9---0---0---0---0---0---0---0---0-----|

Repeat Intro 3x's

e|----------------------------------------------------------------|
B|----------------------------------------------------------------|
G|----------------2-22-22-22-22---9-9-9--------2222444466667777---|
D|-7-7-7---99-9---0-00-00-00-00---7-7-7---99-9-0000000000000000---|
A|-7-7-7---99-9---0-00-00-00-00---7-7-7---99-9-0000000000000000---|
D|-7-7-7---99-9---0-00-00-00-00---7-7-7---99-9-0000000000000000---|

e|---------------------------------------------------------------|
B|---------------------------------------------------------------|
G|---------------------------------------------------------------|
D|-7-7-7---99-9---22224444666677779999111111111313131314141414---|
A|-7-7-7---99-9---000000000000000000000-0-0-0-0-0-0-0-0-0-0-0----|
D|-7-7-7---99-9---000000000000000000000-0-0-0-0-0-0-0-0-0-0-0----|

e|---------------------------------------------------|
B|---------------------------------------------------|
G|-9--9---9------11--11---11------2222444466667777---|
D|-7----7-----7--9------9------9--0000000000000000---|
A|-7--------7----9-----------9----0000000000000000---|
D|-7-------------9-----------------------------------|

e|---------------------------------------------------------------|
B|---------------------------------------------------------------|
G|---------------------------------------------------------------|
D|-7-7-7---99-9---22224444666677779999111111111313131314141414---|
A|-7-7-7---99-9---000000000000000000000-0-0-0-0-0-0-0-0-0-0-0----|
D|-7-7-7---99-9---000000000000000000000-0-0-0-0-0-0-0-0-0-0-0----|

e|-------------------------------------------------------------------|
B|-------------------------------------------------------------------|
G|-------9-------9-------9-------9-------9-------9-------9-------9---|
D|---7-------7-------7-------7-------7-------7-------7-------7-------|
A|-9---9---9---9---9---9---9---9-------------------------------------|
D|---------------------------------7---7---7---7---7---7---7---7-----|

e|-------------------------------------------------------------------|
B|-------------------------------------------------------------------|
G|-------9-------9-------9-------9-------9-------9-------9-------9---|
D|---7-------7-------7-------7-------7-------7-------7-------7-------|
A|-------------------------------------------------------------------|
D|-9---9---9---9---9---9---9---9---0---0---0---0---0---0---0---0-----|

e|--------------------------------------------------------------------|
B|--------------------------------------------------------------------|
G|------------------------------------------------------------22-2----|
D|-7-7-7---22-2---9-9-9---1212-12---7-7-7---1414-14---9-9-9---00-0----|
A|-7-7-7---22-2---9-9-9---1212-12---7-7-7---1414-14---9-9-9---00-0----|
D|-7-7-7---22-2---9-9-9---1212-12---7-7-7---1414-14---9-9-9---00-0----|

e|----------------------------------------------------------------|
B|----------------------------------------------------------------|
G|----------------2-22-22-22-22---9-9-9--------2222444466667777---|
D|-7-7-7---99-9---0-00-00-00-00---7-7-7---99-9-0000000000000000---|
A|-7-7-7---99-9---0-00-00-00-00---7-7-7---99-9-0000000000000000---|
D|-7-7-7---99-9---0-00-00-00-00---7-7-7---99-9-0000000000000000---|

e|-------------------------------------------------------------------|
B|-------------------------------------------------------------------|
G|-------9-------9-------9-------9-------9-------9-------9-------9---|
D|---7-------7-------7-------7-------7-------7-------7-------7-------|
A|-9---9---9---9---9---9---9---9---7---7---7---7---7---7---7---7-----|
D|-------------------------------------------------------------------|

e|-------------------------------------------------------------------|
B|-------------------------------------------------------------------|
G|-------9-------9-------9-------9-------9-------9-------9-------9---|
D|---7-------7-------7-------7-------7-------7-------7-------7-------|
A|-9---9---9---9---9---9---9---9-------------------------------------|
D|---------------------------------7---7---7---7---7---7---7---7-----|

e|-------------------------------------------------------------------|
B|-------------------------------------------------------------------|
G|-------9-------9-------9-------9-------9-------9-------9-------9---|
D|---7-------7-------7-------7-------7-------7-------7-------7-------|
A|-------------------------------------------------------------------|
D|-9---9---9---9---9---9---9---9---0---0---0---0---0---0---0---0-----|

e|-----------------|
B|-----------------|
G|-9~---11~---9~---|
D|-7~---9-~---7~---|
A|-7~---9-~---0~---|
D|-7~---9-~---0~---|
Related for Autoplay Conspiracy - My Illustrated Dream tab