Song name
# A B C D E F G H I J K L M N O P Q R S T U V W X Y Z

Misc Unsigned Bands - Uranus - Could It Be Magic tab

-------------------------------------------------------------------------------
Uranus-Could it be magic
-------------------------------------------------------------------------------

e|---------------------------------------------------------------------------|
B|-4/6-6/7-6-4-2-1-2-4-2-1---4-5-6-7-8-9-10-11-12-13-14-15-16-17-18-18h19----|
G|-------------------------3-------------------------------------------------|
D|---------------------------------------------------------------------------|
A|---------------------------------------------------------------------------|
E|---------------------------------------------------------------------------|

e|---------------------------------------------------------------------------|
B|-18/19/21-19-18-16-18-16-14-14-14h16p14-13-14-16-14-13---------------------|
G|-------------------------------------------------------15------------------|
D|---------------------------------------------------------------------------|
A|---------------------------------------------------------------------------|
E|---------------------------------------------------------------------------|

e|---------------------------------------------------------------------------|
B|-4/6-7-/9-7-6-4-2-2h4p2-1-2-4-2-1-2-1---4/18-18h19-21-19-18-16-14-14h16p14-|
G|--------------------------------------3------------------------------------|
D|---------------------------------------------------------------------------|
A|---------------------------------------------------------------------------|
E|---------------------------------------------------------------------------|

e|-----------------------------------|
B|--13-14-14/16-16-14-13-14-13-------|
G|-----------------------------15----|
D|-----------------------------------|
A|-----------------------------------|
E|-----------------------------------|
Tap to rate this tab
 
# A B C D E F G H I J K L M N O P Q R S T U V W X Y Z