Song name
# A B C D E F G H I J K L M N O P Q R S T U V W X Y Z

Misc Unsigned Bands - The Oobi Band - Oobi Was Robbed Blues tab

-------------------------------------------------------------
			     Oobi Was Robbed Blues - the Oobi band
-------------------------------------------------------------
Tabbed by:Tom

Tuning:standard

verse: (same chords for every verse)
G7
Woke up this mornin'
Oobi Nowhere to be found
C7      Cdim7
Woke up this mornin'
G7
Oobi Nowhere to be found
D9           C9                      G7
Went downstairs, Found Oobi gagged and bound

Solo: 
e|----3-----3----3----3-----------------------3------3-----3------3---|
B|-6b----6b---6b---6b----6bp5p3-------------3------3-----3------3-----|
G|------------------------------3-4------5b-----5b----5b-----5b-------|
D|----------------------------------5---------------------------------|
A|--------------------------------------------------------------------|
E|--------------------------------------------------------------------|

e|----6-8--8b--8b--8bp6-----------------------------------------------3-|
B|--8------------------------8-----x-x-x-5-5-5-3-3------x-x-5-5-3-------|
G|------------------------5+-------x-x-x-5-5-5-3-3------x-x-5-5-3-------|
D|-------------------------------------------------5p3h5----------5p3---|
A|----------------------------------------------------------------------|
E|----------------------------------------------------------------------|

e|-6b--6b--6b--6b---------------3------3------3-------|
B|----------------------------3------3------3---------|
G|-----------------3b------5b------5b------5b----7----|
D|--------------------5-------------------------------|
A|----------------------------------------------------|
E|----------------------------------------------------|
Tap to rate this tab
 
# A B C D E F G H I J K L M N O P Q R S T U V W X Y Z