Song name
# A B C D E F G H I J K L M N O P Q R S T U V W X Y Z

Misc Unsigned Bands - Minnie Ripperton - Loving You tab

-------------------------------------------------------------------------------
			     Loving You - Minnie Ripperton
-------------------------------------------------------------------------------
Tabbed by:ibanez_uchiha


Tuning:standard

Your going have to work out the picking pattern but this is the basics.

Let each note ring out but stop them before you play the next chord.

e|-----9------7-----5-------4-------------------------------------|
B|----7------5-----3-------2--2-----------------------------------|
G|---7-------------------2-----2----------------------------------|
D|--0------6------4-----------------------------------------------|
A|--------4------2------0-----------------------------------------|
E|----------------------------------------------------------------|

play this twice ^

e|-2-0-2------4---------------0-----------------------------------|
B|-3-3-3-----5-5--3-2--------2-2----------------------------------|
G|-2-2-2----------4-4-2-----2---2---------------------------------|
D|-0-------6------2-2--4---2-----2--------------------------------|
A|--------4-------2-2-----0---------------------------------------|
E|----------------------------------------------------------------|


Thats all i've got for now hopefully someone can make a better tab of it out of this tab.


Tap to rate this tab
# A B C D E F G H I J K L M N O P Q R S T U V W X Y Z