Song name
# A B C D E F G H I J K L M N O P Q R S T U V W X Y Z

Misc Unsigned Bands - Leonard - Emma tab

-------------------------------------------------------------------------------
Leonard-Emma
-------------------------------------------------------------------------------

Intro: Am Em

Verse:
e|--0-0-0-------0-0-0---------------------------0-0-0-------0-5-0------------|
B|--------1---1-------1---1-0-0-0-3-1-0---------------1---1-------3-1-0------|
G|----------2-----------2---------------2-2-2-2---------2--------------------|
D|---------------------------------------------------------------------------|
A|---------------------------------------------------------------------------|
E|---------------------------------------------------------------------------|

e|---------------------------------------------------------------------------|
B|--1---1-0-0-0--3-3-3-3-1-0---1-0-------------------------------------------|
G|----2----------------------2-----2-----------------------------------------|
D|---------------------------------------------------------------------------|
A|---------------------------------------------------------------------------|
E|---------------------------------------------------------------------------|

Bridge
e|-5-5-5-5-5-5-5-------------------------------------------------------------|
B|---------------8-6-5-5-5-5-5-5-5-------------------------------------------|
G|----------------------------------7-5-4-4-4-7-5-4---5-4--------------------|
D|--------------------------------------------------7-----7------------------|
A|---------------------------------------------------------------------------|
E|---------------------------------------------------------------------------|

e|-5-5-5-5-5-5-5-------------------------------------------------------------|
B|---------------8-6-5-5-5-5-5-5-5-------------------------------------------|
G|----------------------------------7-5-4-4-4-7-5-4---5-4--------------------|
D|--------------------------------------------------7-----7------------------|
A|---------------------------------------------------------------------------|
E|---------------------------------------------------------------------------|

Solo
e|--5-4-5--------------------5-4-5----------------5-5-8-8-8-8-8-5------------|
B|--------5------------------------5------------------------------7-5--------|
G|----------5---5-/9-9-7-5-----------5-9-9-7-5-9-----------------------------|
D|------------7------------7-------------------------------------------------|
A|---------------------------------------------------------------------------|
E|---------------------------------------------------------------------------|

e|------------------------------10-13-10------------12-17--------------------|
B|----------------------------10---------10------13-------17-----------------|
G|--7-5---5-7-7/9\7-5------10-----------------14-------------17--------------|
D|------7-------------7-12------------------14-------------------------------|
A|---------------------------------------------------------------------------|
E|---------------------------------------------------------------------------|

e|-----------10-13-10----12-12-12-12-10--------------------------------------|
B|--------10----------10----------------13-10--------------------------------|
G|-----10-------------------------------------12-14--------------------------|
D|--12-----------------------------------------------------------------------|
A|---------------------------------------------------------------------------|
E|---------------------------------------------------------------------------|


e|----------------------------------------------------------------------------|
B|----------------------------------------------------------------------------|
G|----------------------------------------------------------------------------|
D|----------------------------------------------------------------------------|
A|-5-7-7-7-5-------5-7-7-7-5-7-5-7-7-7-5----------5-7-7-7-5-------5-7-7-7-5-7-|
E|-----------8-5-8-----------------------8-5-8-0------------8-5-8-------------|

e|----------------------3-5-----5-----5--5-----5--5-----5-----5--5-----5-----|
B|--------------------------6-----6--------6--------5-----5--------5---------|
G|------5-5-5-5-5-5-----------7-----7--------7--------5-----5--------5-------|
D|----7-------------7--------------------------------------------------------|
A|--7------------------------------------------------------------------------|
E|---------------------------------------------------------------------------|

e|--5-----5-----5--5-----5-8-8-8-10-8-10-8-7---------------------------------|
B|----6-----6--------6-------------------------------------------------------|
G|------7-----7--------7-----------------------------------------------------|
D|---------------------------------------------------------------------------|
A|---------------------------------------------------------------------------|
E|---------------------------------------------------------------------------|

Verse
e|---------------------------------------------------------------------------|
B|---------------------------------------------------------------------------|
G|---------------------------------------------------------------------------|
D|----------------------------------------------------------------7----------|
A|--7-7-7-------7-7-7--------------5----------------7-7-7-------7---7-5-3-2--|
E|--------8-5-8-------8-5-8--7-7-7---8-7-5--5-5-5---------8-5-8--------------|

e|---------------------------------------------------------------------------|
B|---------------------------------------------------------------------------|
G|---------------------------------------------------------------------------|
D|---------------------------------------------------------------------------|
A|-3-----3-2-2-2-5-5-5-5--3-2---3-2------------------------------------------|
E|---5-5----------------------5-----5----------------------------------------|

e|--17-17-17--17-17-17-17-15-13-12-12-12-12-12-12-12-10--8-7-7-7-10-10-10-10-|
B|--18-18-18--18-18-18-18-17-15-13-13-13-13-13-13-13-12-10-9-9-9-12-12-12-12-|
G|---------------------------------------------------------------------------|
D|---------------------------------------------------------------------------|
A|---------------------------------------------------------------------------|
E|---------------------------------------------------------------------------|

e|-8-7-5-5-5-5--17-17-15-13-12-12-10--8-7--10--8-7-5--------------0----------|
B|10-9----------18-18-17-15-13-13-12-10-9--12-10-9---5------------1----------|
G|-----------------------------------------------------7-5--------2----------|
D|---------------------------------------------------------7-5-7-------------|
A|---------------------------------------------------------------------------|
E|---------------------------------------------------------------------------|
Tap to rate this tab
# A B C D E F G H I J K L M N O P Q R S T U V W X Y Z