Song name
# A B C D E F G H I J K L M N O P Q R S T U V W X Y Z

Misc Unsigned Bands - Skylit Heros - On My Way tab

Okay, here's On My Way. By Skylit Heros. You may know them as Ignition Egnited. Hope 
isnt too confusing! Enjoy!

Intro:
e|------------------------------------------------|
B|-1-1-1-1-1-1-1-1-1-1-1-1-1-1-1-1-1-1------------|
G|-0-0-0-0-0-0-0-0-0-0-2-2-2-2-2-2-2-2------------|
D|-2-2-2-2-0-0-2-2-2-2-2-2-2-2-2-2-2-2------------|
A|-3-3-3-3-0-0-2-2-2-2-0-0-0-0-0-0-0-0------------|
E|------------------------------------------------| Repeat Twice.

Verse I:
e|------------------------------------------------|
B|-1-1-1-1-1-1-1-1-1-1-1-1-1-1-1-1-1-1------------|
G|-0-0-0-0-0-0-0-0-0-0-2-2-2-2-2-2-2-2------------|
D|-2-2-2-2-0-0-2-2-2-2-2-2-2-2-2-2-2-2------------|
A|-3-3-3-3-0-0-2-2-2-2-0-0-0-0-0-0-0-0------------|
E|------------------------------------------------| Repeat Twice.
Begin playing this when it says "At 6:30 I turned Simple Plan on....."

Chorus:
e|------------------------------------------------|
B|-------------222222--------222222--------2222---|
G|-------------222222--------222222--------2222---|
D|------222222-222222-222222-222222-222222-2222---|
A|-5555-222222--------222222--------222222--------|
E|-3333-------------------------------------------|

Verse II:
e|------------------------------------------------|
B|-1-1-1-1-1-1-1-1-1-1-1-1-1-1-1-1-1-1------------|
G|-0-0-0-0-0-0-0-0-0-0-2-2-2-2-2-2-2-2------------|
D|-2-2-2-2-0-0-2-2-2-2-2-2-2-2-2-2-2-2------------|
A|-3-3-3-3-0-0-2-2-2-2-0-0-0-0-0-0-0-0------------|
E|------------------------------------------------| Repeat Twice.
Start at "As I sit here today......."
Tap to rate this tab
# A B C D E F G H I J K L M N O P Q R S T U V W X Y Z