Song name
# A B C D E F G H I J K L M N O P Q R S T U V W X Y Z

Misc Unsigned Bands - Pikk - 1000 Years tab

This is The Intro To My First Tabbed Song:
1000 Years. I Wrote It, it's Instrumental, I'm The only one in this song.
It's Easy, Enjoy It!
I'll Have The MP3 On My Profile Soon    ~= Bend or Whammy Effect
-----------7---7---------------7---7---------------7~~~~~~~~~~--|
--------6---------6---------6---------6---------6---------------|
-----5---------------5---5---------------5---5------------------| x2
----------------------------------------------------------------|
----------------------------------------------------------------|
----------------------------------------------------------------|

----------------------------------------------------------------|
----------------------------------------------------------------|
----------------------------------------------------------------|
-----------5---5---------------5---5---------------5~~~~~~~~~~--|
--------4---------4---------4---------4---------4---------------| x2
-----3---------------3---3---------------3---3------------------|

-----2----5----9----15    ------------------------------------|
-----0----0----0----0-    ------------------------------------|
-----0----0----0----0- x4 ------------------------------------|
-----0----0----0----0-    ------------------------------------|
-----2----5----9----14    -----------------------------4------|
-----2----5----9----13    ---1--------------------------------|

--------------------------------------------------------------|
--------------------------------------------------------------|
--------------------------------------------------------------|
--------------------7-------------------------12--------------|
--------------------------------------------------------------|
--------------------------------------------------------------|

---------1----1--2--1--|
---------1----1--2--1--|
---------1----1--2--1--| x2
---------0----0--0--0--|
---------0----0--0--0--|
---------0----0--0--0--|

When It Says x2 Here,You Restart From Where You Pluck E String on 1st Fret.

Have Fun!
Whole Song Coming Soon
Tap to rate this tab
 
# A B C D E F G H I J K L M N O P Q R S T U V W X Y Z