Song name
# A B C D E F G H I J K L M N O P Q R S T U V W X Y Z

Misc Unsigned Bands - Everybody Out - Truth tab

------------------------------------------------------
			     Truth – Everybody Out!
-------------------------------------------------------
Tabbed by: thelip285	
Email: thelip285@aol.com

Everybody Out! official website: myspace.com/everybodyoutband

G for these parts 

“U-S-A to the UK!” & “So come with us to…”

Verse: figure out how many times to play each chord

“We all need to start to take a stand…” & “They try to sell us more than we can buy…”

e|---------------------------------------------------|
B|---------------------------------------------------|
G|-7-------------------------------------------------|
D|-7---5---------------------------------------------|
A|-5---5---------------------------------------------|
E|-----3---------------------------------------------|

Second part of second verse: figure out how many times to play each chord


“And we all gotta make our way…”

e|----------------------------------------------------|
B|----------------------------------------------------|
G|-5-----5-----5------7-------------------------------|
D|-5--5--5--5--5--5---7-------------------------------|
A|-3--5--3--5--3--5---5-------------------------------|
E|----3-----3-----3-----------------------------------|

Chorus: same chords as verse

“And we all gotta live with the truth”

Tap to rate this tab
 
# A B C D E F G H I J K L M N O P Q R S T U V W X Y Z