Song name
# A B C D E F G H I J K L M N O P Q R S T U V W X Y Z

Misc Unsigned Bands - Vermillion Sky - Astaroth Has Stolen Your Eyes tab

standard tuning...

intro:
E|--------------------------------------------------------||
B|--------------------------------------------------------||
G|----------------------------------------5-554-0-000-----||
D|----4h5-55-4-0-0000--0-4h5-55-4-0-0000------------------||x2
A|--------------------------------------------------------||
E|--------------------------------------------------------||

E|--------------------------------------------------------||
B|--------------------------------------------------------||
G|----------------------------------------5-554-0-000-----||
D|----4h5-55-4-0-0000--0-4h5-55-4-0-0000------------------||x2
A|--------------------------------------------------------||
E|--------------------------------------------------------||
Tap to rate this tab
 
# A B C D E F G H I J K L M N O P Q R S T U V W X Y Z