Song name
# A B C D E F G H I J K L M N O P Q R S T U V W X Y Z

Misc Unsigned Bands - Vermillion Sky - Breath Easy tab

intro:
E|--------------------------------------------------------||
B|------12----12----12----12------------------------------||
G|---15----15----15----15---------------------------------||
D|--------------------------------------------------------||
A|--------------------------------------------------------||
E|--------------------------------------------------------||


E|--------------------------------------------------------||
B|--------------------------------------------------------||
G|--------------------------------------------------------||
D|--------------------------------------------------------||
A|--------------------------------------------------------||
E|--00000-00000-00-00000-00000-00000-00-------------------||


E|--------------------------------------------------------||
B|------12----12----12----12------------------------------||
G|---15----15----15----15---------------------------------||
D|--------------------------------------------------------||
A|--------------------------------------------------------||
E|--------------------------------------------------------||


E|--------------------------------------------------------||
B|--------------------------------------------------------||
G|--------------------------------------------------------||
D|--------------------------------------------------------||
A|--------------------------------------------------------||
E|--00000-00000-00-00000-00000-00000-00-------------------||
Tap to rate this tab
# A B C D E F G H I J K L M N O P Q R S T U V W X Y Z