Song name
# A B C D E F G H I J K L M N O P Q R S T U V W X Y Z

Misc Unsigned Bands - Dreadnot - Customize Your Own Casket tab

intro:
-----------14----------------------------------14-------------------------|
--15-14-12----15-14-12-14-12-15-14-12-15-14-12----15-14-12-14-12-15-14-12-|
--------------------------------------------------------------------------|
--------------------------------------------------------------------------|
--------------------------------------------------------------------------|
--------------------------------------------------------------------------|

-----------14----------------------------------14-------------------------|
--15-14-12----15-14-12-14-12-15-14-12-15-14-12----15-14-12-14-12-15-14-12-|
--------------------------------------------------------------------------|
--------------------------------------------------------------------------|
--------------------------------------------------------------------------|
--------------------------------------------------------------------------|

-----------14----------------------------------14-------------------------|
--15-14-12----15-14-12-14-12-15-14-12-15-14-12----15-14-12-14-12-15-14-12-|
--------------------------------------------------------------------------|
--------------------------------------------------------------------------|
--------------------------------------------------------------------------|
--------------------------------------------------------------------------|
Tap to rate this tab
# A B C D E F G H I J K L M N O P Q R S T U V W X Y Z