Song name
# A B C D E F G H I J K L M N O P Q R S T U V W X Y Z

Misc Unsigned Bands - Dreadnot - This Is The End tab

minisolo:(3:25)
d|--------------------------------------------------------------------|
a|--------------------------------------------------------------------|
f|----------------------------------------------------------5-5-------|
c|--------5---------------------------------5-------------------8-8-7-|
g|------8---7-7-7-5-8-8-8-----------------8---7-7-7-5-8-8-8-----------|
c|-\0-7-------------------7-8-8-8-8---0-7-----------------------------|

d|--------------------------------------------------------------------|
a|--------------------------------------------------------------------|
f|--------------------------------------------------------------------|
c|-------5---------7-7-7-------------------5---------7-7-7-7-7-7-7-7--|
g|-----8---7-7-7-5-------8-8-8-8-8-------8---7-7-7-5------------------|
c|-0-7-------------------------------0-7------------------------------|
Tap to rate this tab
 
# A B C D E F G H I J K L M N O P Q R S T U V W X Y Z