Song name
# A B C D E F G H I J K L M N O P Q R S T U V W X Y Z

Misc Unsigned Bands - Casablanca - Nocturne tab

e --------8-6-5--------------7-6-5---------------------------|
B --5h6-5-------6h8----5h6-5-------6h8-----------------------|
G -----------------------------------------------------------| 
D -----------------------------------------------------------| x2
A -----------------------------------------------------------|
D -----------------------------------------------------------|

e --------8-6-5--------------7-6-5---------------------------|
B --5h6-5-------6h8----5h6-5-------6h8-----------------------|
G -----------------------------------------------------------| 
D -----------------------------------------------------------|
A -----------------------------------------------------------|
D -----------------------------------------------------------|

e --------8-6-5--------------7-6-5---------------------------|
B --5h6-5-------6h8----5h6-5-------6h8-----------------------|
G -----------------------------------------------------------| 
D -----------------------------------------------------------|
A -----------------------------------------------------------|
D -----------------------------------------------------------|
Tap to rate this tab
# A B C D E F G H I J K L M N O P Q R S T U V W X Y Z