Song name
# A B C D E F G H I J K L M N O P Q R S T U V W X Y Z

Misc Unsigned Bands - Casablanca - A Second Before Midnight tab

Gtr. 1
e|------------------|
b|------------------|
g|------------------|
d|-9-(volume swell)-|
a|-7----------------|
E|------------------|
 |                  |
e|------------------|
b|------------------|
g|------------------|
d|------------------|
a|------------------|
E|------------------|

e|--------------------------------------------------|
b|--------------------------------------------------|
g|--------------------------------------------------|
d|-9-99-99--10--9--7-7-9--9-99-99--10-9-7-----------|
a|-7-77-77----------------7-77-77---------10-9-7----|
E|-----------------------------------------------10-|
 |   mm                     mm                      |
e|--------------------------------------------------|
b|--------------------------------------------------|
g|--------------------------------------------------|
d|--------------------------------------------------|
a|--------------------------------------------------|
E|--------------------------------------------------|

e|--------------------------------------------------|
b|--------------------------------------------------|
g|--------------------------------------------------|
d|-5-55-55---6--5--3-3-5--5-55-55---6-5-3-----------|
a|-3-33-33----------------3-33-33----------6-5-3----|
E|------------------------------------------------6-|
 |   mm                     mm                      |
e|--------------------------------------------------|
b|--------------------------------------------------|
g|--------------------------------------------------|
d|--------------------------------------------------|
a|--------------------------------------------------|
E|--------------------------------------------------|

e|--------------------------------------------------|
b|--------------------------------------------------|
g|--------------------------------------------------|
d|-9-99-99--10--9--7-7-9--9-99-99--10-9-7-----------|
a|-7-77-77----------------7-77-77---------10-9-7----|
E|-----------------------------------------------10-|
 |   mm                     mm                      |
e|--------------------------------------------------|
b|--------------------------------------------------|
g|--------------------------------------------------|
d|-9-99-99--10--9--7-7-9--9-99-99--10-9-7-----------|
a|-7-77-77----------------7-77-77---------10-9-7----|
E|-----------------------------------------------10-|
     mm                     mm

e|--------------------------------------------------|
b|--------------------------------------------------|
g|--------------------------------------------------|
d|-5-55-55---6--5--3-3-5--5-55-55---6-5-3-----------|
a|-3-33-33----------------3-33-33----------6-5-3----|
E|------------------------------------------------6-|
 |   mm                     mm                      |
e|--------------------------------------------------|
b|--------------------------------------------------|
g|--------------------------------------------------|
d|-5-55-55--10--9--7-7-9--5-55-55--10-9-7-----------|
a|-3-33-33----------------3-33-33---------10-9-7----|
E|-----------------------------------------------10-|
     mm                     mm

e|--------------------------------------------------|
b|--------------------------------------------------|
g|--------------------------------------------------|
d|-9-99-99--10--9--7-7-9--9-99-99--10-9-7-----------|
a|-7-77-77----------------7-77-77---------10-9-7----|
E|-----------------------------------------------10-|
 |   mm                     mm                      |
e|--------------------------------------------------|
b|--------------------------------------------------|
g|--------------------------------------------------|
d|-9-99-99--10--9--7-7-9--9-99-99--10-9-7-----------|
a|-7-77-77----------------7-77-77---------10-9-7----|
E|-----------------------------------------------10-|
     mm                     mm

e|--------------------------------------------------|
b|--------------------------------------------------|
g|--------------------------------------------------|
d|-5-55-55---6--5--3-3-5--5-55-55---6-5-3-----------|
a|-3-33-33----------------3-33-33----------6-5-3----|
E|------------------------------------------------6-|
 |   mm                     mm                      |
e|--------------------------------------------------|
b|--------------------------------------------------|
g|--------------------------------------------------|
d|-5-55-55--10--9--7-7-9--5-55-55--10-9-7-----------|
a|-3-33-33----------------3-33-33---------10-9-7----|
E|-----------------------------------------------10-|
     mm                     mm
Tap to rate this tab
# A B C D E F G H I J K L M N O P Q R S T U V W X Y Z