Song name
# A B C D E F G H I J K L M N O P Q R S T U V W X Y Z

Misc Unsigned Bands - Casablanca - Trebucket tab

intro:
E|----------------------------------------------------------------|
B|---------0----------------0----------------0-------------0------|
G|-----0-----0----------0-----0----------0-----0-------0-----0----|
D|---5---5------5-----7---7-----7-------7-7------7----5-5------5--|
A|-7--------------7-5-------------7-7-5-----------5-7------------7|
D|----------------------------------------------------------------|

E|----------------------------------------------------------------|
B|---------0----------------0----------------0-------------0------|
G|-----0-----0----------0-----0----------0-----0-------0-----0----|
D|---5---5------5-----7---7-----7-------7-7------7----5-5------5--|
A|-7--------------7-5-------------7-7-5-----------5-7------------7|
D|----------------------------------------------------------------|

E|-----------------------------------------------------------------------|
B|-----------------------------------------------------------------------|
G|-9--9-9-9--11~--11-11-11--11/12-12/14-14-14-14/16-16-16-16/12-12-12-12-|
D|-x--x-x-x---x~---x--x--x---x--x--x--x--x--x--x--x--x--x--x--x--x--x--x-|x4
A|-7--7-7-7---9~---9--9--9---9/10-10/12-12-12-12/14-14-14-14/10-10-10-10-|
D|-----------------------------------------------------------------------|
Tap to rate this tab
# A B C D E F G H I J K L M N O P Q R S T U V W X Y Z