Song name
# A B C D E F G H I J K L M N O P Q R S T U V W X Y Z

Misc Unsigned Bands - Vermillion Sky - Realize tab

E---------------------------0------------------------------0-----|
B--7----8-----7-----7---8-------7-----7-7---8----7--8--7---------|
G-----9---9-9---9-9---9---9---9-----9-----9---9-9--9--9--9-------|
D----------------------------------------------------------------|
A----------------------------------------------------------------|
E----------------------------------------------------------------|


E-------------------------------0----------------0------------|
B------3---3--5------3----3---3---3---3----3---3---3---3------|
G---5----5------5--5----5---5-------5----5---5-------5--------|
D-------------------------------------------------------------|
A-------------------------------------------------------------|
E-------------------------------------------------------------|
Tap to rate this tab
 
# A B C D E F G H I J K L M N O P Q R S T U V W X Y Z