Song name
# A B C D E F G H I J K L M N O P Q R S T U V W X Y Z

Misc Unsigned Bands - Vermillionsky - Another Bad Ending tab

E ----------------------------------------------------------------------|
B ----------------------------------------------------------------------|
G --7------------------7------------------7-----------------------------|
D ------10-9--10^9---------10-9--10^9----------10-9--10^9---9-----------|
A ----------------10-----------------10------------------10-------------|
E ----------------------------------------------------------------------|


E ----------------------------------------------------------------------|
B ----------------------------------------------------------------------|
G ------------7-----------------------------------5/7-------------------|
D --9-10-9-10---10-9-10---9------9-9-9/10---9---------10-10---9---------|
A ----------------------------10--------------10------------------------|
E ----------------------------------------------------------------------|


E ----------------------------------------------------------------------|
B ----------------------------------------------------------------------|
G --7------------------7------------------7-----------------------------|
D ------10-9--10^9---------10-9--10^9----------10-9--10^9---9-----------|
A ----------------10-----------------10------------------10-------------|
E ----------------------------------------------------------------------|


E ----------------------------------------------------------------------|
B ----------------------------------------------------------------------|
G ------------7-----------------------------------5/7-------------------|
D --9-10-9-10---10-9-10---9------9-9-9/10---9---------10-10---9---------|
A ----------------------------10--------------10------------------------|
E ----------------------------------------------------------------------|
Tap to rate this tab
# A B C D E F G H I J K L M N O P Q R S T U V W X Y Z