Guitaretab - guitar tabs
Song name
# A B C D E F G H I J K L M N O P Q R S T U V W X Y Z

Misc Unsigned Bands - The Hope Conspiracy - Fallen tab

Song: Fallen
Artist: The Hope Conspiracy
Album: Endnote

official band website: http://www.myspace.com/hopecon

Tuning: Drop C#

D#|-----------------------|
A#|-----------------------|
F#|-----------------------|
C#|-----------------------|
G#|-3h5-------------------|
C#|-----0-0---------------| x2
pm      .

D#|-----------------------|
A#|-----------5~----------|
F#|-----------4~----------|
C#|-----------0~----------|
G#|-3h5-------------------|
C#|-----0-0---------------|
pm      .

D#|-----------------------|
A#|-----------------------|
F#|-----------------------|
C#|-----------------------|
G#|-3h5-------\\pickslide-|
C#|-----0-0---\\----------|
pm      .

D#|-----------------------------------------|
A#|-----------------------------------------|
F#|----------------------------------5-55---|
C#|------------------------6-66666---3-33---|
G#|-3h5--------------------6-66666---3-33---|
C#|-----0-0---000000-3h5-0-6-66666-0-3-33---| x4
pm      .     ......     .         .

D#|-----------------------|
A#|-----------------------|
F#|-6-6666----------------|
C#|-6-6666-55555/8888-33--|
G#|-4-4444-55555/8888-33--|
C#|--------55555/8888-33--| x3
pm

D#|-----------------------|
A#|-----------------------|
F#|-----------------------|
C#|-0~--------------------|
G#|-0~--------------------|
C#|-0~--------------------|
pm
[ Tab from: http://www.guitaretab.com/m/misc-unsigned-bands/109888.html ]
D#|-----------------------------------------|
A#|-----------------------------------------|
F#|----------------------------------5-55---|
C#|------------------------6-66666---3-33---|
G#|-3h5--------------------6-66666---3-33---|
C#|-----0-0---000000-3h5-0-6-66666-0-3-33---| x4
pm      .     ......     .         .

D#|-----------------------|
A#|-----------------------|
F#|-6-6666----------------|
C#|-6-6666-55555/8888-33--|
G#|-4-4444-55555/8888-33--|
C#|--------55555/8888-33--| x4
pm

D#|-----------------------|
A#|-----------------------|
F#|-----------------------|
C#|-0~--------------------|
G#|-0~--------------------|
C#|-0~--------------------|
pm

D#|--------------------------------------------------------------------------------|
A#|--------------------------------------------------------------------------------|
F#|--------------------------------------------------------------------------------|
C#|--------------------------------------------------------------------------------|
G#|-3h5----------------------------------3h5---------------------------------------|
C#|-----0-0--0000000000000-0--0000000000-----0-00000000000-3h5-6-66666-3-333------|
pm      .    .............    ..........     .   ..........

D#|--------------------------------|
A#|--------------------------------|
F#|--------------------------------|
C#|--------------------------------|
G#|-3h5----------------------------|
C#|-----0-0---00000000000000000000-| x4
pm      .     ....................

D#|--------------------------------|
A#|--------------------------------|
F#|-------------------------5------|
C#|-----------------6-------3------|
G#|-3h5-------------6-------3------|
C#|-----0-0---00000-6-00000-3------| x2
pm      .     .....      .      

end on
D#|-----------------------|
A#|-----------------------|
F#|-----------------------|
C#|-----------------------|
G#|-3h5-------------------|
C#|-----0-0---------------|
pm      .

there we go.
Related for The Hope Conspiracy - Fallen tab