Guitaretab - guitar tabs
Song name
# A B C D E F G H I J K L M N O P Q R S T U V W X Y Z

Misc Unsigned Bands - Aborais - Delano Song tab

Delano song 2
by The Aborais

1st  guitar:

Intro:

---0-00-00-0-00-00-2-22-22-33-22-----------|
-------------------------------------------|
-------------------------------------------|
-------------------------------------------|
-------------------------------------------|
-------------------------------------------|

Main verse:

1st guitar:

---0-02-2--0-0--3-2--------------------| repeat
----------------------------------------|
----------------------------------------|
----------------------------------------|
----------------------------------------|
----------------------------------------|

2nd guitar:
[ Tab from: http://www.guitaretab.com/m/misc-unsigned-bands/109889.html ]
------------------0-0------3--0---| repeat
------------------2-2------0--2---|
---0-0----1-1-----2-2------0--2---|
---2-2----2-2-----2-2------0--2---|
---2-2----2-2-----0-0---------0---|
---0-0----0-0---------------------|

Chorus:

1st  guitar:

--0000---22222---0000--22222--33333--22222----------------|  2x
----------------------------------------------------------|
----------------------------------------------------------|
----------------------------------------------------------|
----------------------------------------------------------|
----------------------------------------------------------|

2nd guitar:

------------00000--------------00000---11111----00000-----|  2x
------------22222--------------22222---00000----22222-----|
---0101-----22222----0101------22222---00000----22222-----|
---2222-----22222----2222------22222---00000----22222-----|
---2222-----00000----2222------00000------------00000-----|
---0000--------------0000---------------------------------|

Ok hope you like it!
Related for Aborais - Delano Song tab