Song name
# A B C D E F G H I J K L M N O P Q R S T U V W X Y Z

Misc Unsigned Bands - Promise And The Monster - Sheets tab

                                    Sheets                                      


                                                         Promise and the Monster
Spor 1



      E  E  E  E   E   E  E  E  E  E     E  E  E  E   E   E  E  E  E  E  10x
E||---0--------0----------------------|--0--------2---L-------------------||
B||------3--------(3)-----3-----3-----|-----3--------(3)-----3-----3------||
G||*--------4----------4-----4-----4--|--------4----------4-----4-----4--*||
D||*--2--------2---L------0-----------|----------------------------------*||
A||-----------------------------2-----|-------------------------2---------||
E||-----------------------------------|--3--------3---L-------------------||


  E   E   E  E   E   E  E   E   E  E   E   E   
--2----------2---L------2----------2---L------|
-----(3)--------(3)--------(3)--------(3)-----|
----------4----------4----------4----------4--|
----------------------------------------------|
----------------------------------------------|
--0----------L---L------0----------L---L------|


  E   E   E  E   E   E  E   E   E  E   E   E   
--0----------0----------0----------0----------|
-----(3)--------(3)--------(3)--------(3)-----|
----------4----------4----------4-------------|
-------------------------------------------5--|
----------------------------------------------|
--0----------L----------0----------L----------|


    E   E   E  E   E   E  E   E   E  E   E   E   
|---3----------3----------2----------2----------|
|------(3)--------(3)--------(3)--------(3)-----|
|*----------------------------------------------|
|*----------5----------4----------4----------5--|
|-----------------------------------------------|
|-----------------------------------------------|


  E   E   E  E   E   E  E  E  E  E   E   E   4x
--2----------2----------------2--------------||
-----(3)--------(3)-----3-----------(3)------||
---------------------4-----4-----4---L---4--*||
--4-------5-------------------5----------5--*||
---------------------------------------------||
---------------------------------------------||


  E   E   E  E   E   E  E   E   E  E   E   E   
--0----------0----------0----------0----------|
-----(3)--------(3)--------(3)--------(3)-----|
----------4----------4----------4----------4--|
----------------------------------------------|
----------------------------------------------|
--0-------------------------------------------|


  E   E   E  E   E   E  E   E   E  E   E   E   
--0----------0----------0----------0----------|
-----(3)--------(3)--------(3)--------(3)-----|
----------4----------4----------4----------4--|
--2-------------------------------------------|
----------------------------------------------|
----------------------------------------------|


  E   E   E  E  E  E  E  E  E  E     E  E  E  E   E   E  E  E  E  E   
--0----------0--------------------|--0--------2---L------------------|
-----(3)--------3-----3-----3-----|-----3--------(3)-----3-----3-----|
----------4--------4-----4-----4--|--------4----------4-----4-----4--|
----------------------0-----------|----------------------------------|
----------------------------2-----|-------------------------2--------|
----------------------------------|--3--------3---L------------------|


    E  E  E  E   E   E  E  E  E  E     E  E  E  E   E   E  E  E  E  E   9x
|---0--------0----------------------|--0--------2---L-------------------||
|------3--------(3)-----3-----3-----|-----3--------(3)-----3-----3------||
|*--------4----------4-----4-----4--|--------4----------4-----4-----4--*||
|*--2--------2---L------0-----------|----------------------------------*||
|-----------------------------2-----|-------------------------2---------||
|-----------------------------------|--3--------3---L-------------------||


  E   E   E  E   E   E  E   E   E  E   E   E   
--2----------2---L------2----------2---L------|
-----(3)--------(3)--------(3)--------(3)-----|
----------4----------4----------4----------4--|
----------------------------------------------|
----------------------------------------------|
--0----------L---L------0----------L---L------|


  E   E   E  E   E   E  E   E   E  E   E   E   
--0----------0----------0----------0----------|
-----(3)--------(3)--------(3)--------(3)-----|
----------4----------4----------4-------------|
-------------------------------------------5--|
----------------------------------------------|
--0----------L----------0----------L----------|


    E   E   E  E   E   E  E   E   E  E   E   E   
|---3----------3----------2----------2----------|
|------(3)--------(3)--------(3)--------(3)-----|
|*----------------------------------------------|
|*----------5----------4----------4----------5--|
|-----------------------------------------------|
|-----------------------------------------------|


  E   E   E  E   E   E  E  E  E  E   E   E   4x
--2----------2----------------2--------------||
-----(3)--------(3)-----3-----------(3)------||
---------------------4-----4-----4---L---4--*||
--4-------5-------------------5----------5--*||
---------------------------------------------||
---------------------------------------------||


   E   E   E  E  E  E  E  E  E  E  E  E   
---0-------0-----0-----------0-----0-----|
------(8)--8-----8-----------8-----8-----|
*----------------------------------------|
*-------------5-----5-----5-----5-----5--|
-----------------------------------------|
---0-------------------0-----------------|


  E  E  E  E  E  E   E   E  E  E  E  E   4x             
--------0-----0------0------0-----0------||-----|-----||
--------8-----7------7------7-----5------||-----|-----||
----------------------------------------*||-----|-----||
-----5-----5-----5--(4)--5--4--5-----5--*||-----|-----||
--5--------------------------------------||-----|-----||
-----------------------------------------||-----|-----||




Duration Legend
---------------
W - whole
H - half
Q - quarter
E - 8th


Tablature Legend
----------------
L - tied note
(n) - ghost note
Tap to rate this tab
# A B C D E F G H I J K L M N O P Q R S T U V W X Y Z