Guitaretab - guitar tabs
Song name
# A B C D E F G H I J K L M N O P Q R S T U V W X Y Z

Misc Unsigned Bands - Leonard - Mustat Silmt tab

-------------------------------------------------------------------------------
Leonard-Mustat silmät
-------------------------------------------------------------------------------

e|---------------------------------------------------------------------------|
B|---------------------------------------------------------------------------|
G|-9\2-------------------------------2---------------------------------------|
D|-------------------------2-2-2-2-2-----------------------------------------|
A|-----0-0-0-0-0-4-4-4-4-4---------------------------------------------------|
E|---------------------------------------------------------------------------|

e|---------------------------------------------------------------------------|
B|---------------------------------------------1-1-3-1-----------------------|
G|---------------------------2-2-1-1-4-5-4-2-2---------4---------------------|
D|-2-1-2-3-3-2-2-1-2-3-3-2-2-----------------------------3-------------------|
A|---------------------------------------------------------------------------|
E|---------------------------------------------------------------------------|

e|---------------------------------------------------------------------------|
B|------------------------------------------5-4-5-6-6-5-5-4-5-6-5-5----------|
G|-4-5-4-2-----------------5-4-2-2-2-2-2-2-----------------------------------|
D|---------2-2-1-2-3-2-1-2---------------------------------------------------|
A|---------------------------------------------------------------------------|
E|---------------------------------------------------------------------------|

e|---5-5-4-4-7-7-8-7-5-5-8-8-10-8-7---7-8-7-5-----------------8-7-5-5-5-5-5-5|
B|-5--------------------------------5---------5-5-4-5-6-5-4-5----------------|
G|---------------------------------------------------------------------------|
D|---------------------------------------------------------------------------|
A|---------------------------------------------------------------------------|
E|---------------------------------------------------------------------------|
[ Tab from: http://www.guitaretab.com/m/misc-unsigned-bands/109893.html ]
e|---------------------------------------------------------------------------|
B|--5-5-4-3-----5-5-3-------3-3-1-0-----0-1-0-------------------------1------|
G|----------3-3-------5-2-2---------1-1-------2---------------0-----2--------|
D|----------------------------------------------2-2-1-2-3-0-3---3-2----------|
A|---------------------------------------------------------------------------|
E|---------------------------------------------------------------------------|

e|---------------------------------------------------------------------------|
B|-1-1-3-1-1-0---0-1-0--------------5-6-5-6-5-6-6-5-6-5-6-5-4-5-4-5-5-4-5-4-5|
G|-------------3-------2-2-2-2-2-2-------------------------------------------|
D|---------------------------------------------------------------------------|
A|---------------------------------------------------------------------------|
E|---------------------------------------------------------------------------|

e|-----------------------------------5-5-----------5-5----5---5--------------|
B|-3-2-3-2-3-1-0---------5-6-5-6-3-3-----5-4-5----------5---5---5-3----------|
G|---------------2-----------------------------5-5------------------5-4-2----|
D|-----------------2------------------------------------------------------2--|
A|-------------------3-0-----------------------------------------------------|
E|---------------------------------------------------------------------------|


e|---------------------------------------------------------------------------|
B|---------------------------------------------1-1-3-1-----------------------|
G|---------------------------2-2-1-1-4-5-4-2-2---------4---------------------|
D|-2-1-2-3-3-2-2-1-2-3-3-2-2-----------------------------3-------------------|
A|---------------------------------------------------------------------------|
E|---------------------------------------------------------------------------|

e|---------------------------------------------------------------------------|
B|------------------------------------------5-4-5-6-6-5-5-4-5-6-5-5----------|
G|-4-5-4-2-----------------5-4-2-2-2-2-2-2-----------------------------------|
D|---------2-2-1-2-3-2-1-2---------------------------------------------------|
A|---------------------------------------------------------------------------|
E|---------------------------------------------------------------------------|

e|---5-5-4-4-7-7-8-7-5-5-8-8-10-8-7---7-8-7-5-----------------8-7-5-5-5-5-5-5|
B|-5--------------------------------5---------5-5-4-5-6-5-4-5----------------|
G|---------------------------------------------------------------------------|
D|---------------------------------------------------------------------------|
A|---------------------------------------------------------------------------|
E|---------------------------------------------------------------------------|
Related for Leonard - Mustat Silmt tab
×
Leonard - Mustat Silmt