Song name
# A B C D E F G H I J K L M N O P Q R S T U V W X Y Z

Misc Unsigned Bands - Leonard - Tuuli tab

-------------------------------------------------------------------------------
Leonard-Tuuli
-------------------------------------------------------------------------------

e|---------------------------------------------------------------------------|
B|---------------------------------------------------------------------------|
G|--5-4-2---------------------------------5-4-2---------------------2-5-4----|
D|--------5-3-2---------4-2-1-2-4---------------5-3-2-----5-3---3-2----------|
A|--------------3-0-3-2-----------3-5-3-2-------------3-0-----5--------------|
E|---------------------------------------------------------------------------|

e|--------8-7-5---------------7-5-4-5-7----------8-7-5-----------------------|
B|--------------8-6-5--------------------6-8-6-5-------8-6-5-----8-6---6-5---|
G|-2-1-2--------------5---5-4--------------------------------5-------7-------|
D|----------------------7--------------------------------------7-------------|
A|---------------------------------------------------------------------------|
E|---------------------------------------------------------------------------|

e|--5-8-7-5-4-5--5-7-3-3-5-1-1-3-1-0-5-7-3-3-5-1-5-8-7-----------------------|
B|---------------------------------------------------------------------------|
G|-----------------------------------------------------5-4-2-----------------|
D|-----------------------------------------------------------5-3-2----5-3----|
A|----------------------------------------------------------------3-0--------|
E|---------------------------------------------------------------------------|

e|---------------------12-12-------------------------------------------------|
B|---------------------11-11-------------------------------------------------|
G|--------2-5-4-2-1-2--------12-10-12-10---------------------------------9---|
D|----3-2--------------------------------12-8-----------------------7-10-----|
A|--5-----------------------------------------10-8----8-10---8-9-10----------|
E|-------------------------------------------------10------8-----------------|

e|---------------------------------------------------------------------------|
B|---------------------------------------------------------------------------|
G|-9-12-0-0-11-0-0-10-0-0-9-0-0-7-0-0-5-0-0--3-0-0-3-5-5-3-5-3---3-5---------|
D|-------------------------------------------------------------5-------------|
A|---------------------------------------------------------------------------|
E|---------------------------------------------------------------------------|

e|---------------------14-10-12-10-------10-12-14-15-14-12-10-12-------------|
B|------------------10-------------12-12-------------------------------------|
G|-------------9-11----------------------------------------------------------|
D|-----9-10-11---------------------------------------------------------------|
A|--12-----------------------------------------------------------------------|
E|---------------------------------------------------------------------------|

e|---13-10-8-10-8-----------------7-8-8-7-5-4-5-5----------------------------|
B|----------------10-8-----7-8-10--------------------------------------------|
G|---------------------7-9---------------------------------------------------|
D|---------------------------------------------------------------------------|
A|---------------------------------------------------------------------------|
E|---------------------------------------------------------------------------|


e|---------------------------------------------------------------------------|
B|---------------------------------------------------------------------------|
G|--5-4-2---------------------------------5-4-2---------------------2-5-4----|
D|--------5-3-2---------4-2-1-2-4---------------5-3-2-----5-3---3-2----------|
A|--------------3-0-3-2-----------3-5-3-2-------------3-0-----5--------------|
E|---------------------------------------------------------------------------|


e|----------5-7-3-3-5-1-1-3-1-0-5-7-3-3-5-1-5-8-7-9-9-8-6--------------------|
B|--------------------------------------------------------9-7-6-----9-7------|
G|--------------------------------------------------------------6------------|
D|-2-1-2----------------------------------------------------------8----------|
A|---------------------------------------------------------------------------|
E|---------------------------------------------------------------------------|



e|------------6-9-8-6-5-6---6-6------8----------------
B|------7-6---------------6------7---7----------------
G|----8------------------------------8----------------
D|----------------------------------------------------
A|----------------------------------------------------
E|----------------------------------------------------

Tap to rate this tab
# A B C D E F G H I J K L M N O P Q R S T U V W X Y Z