Song name
# A B C D E F G H I J K L M N O P Q R S T U V W X Y Z

Misc Unsigned Bands - Leonard - Lehdet tab

-------------------------------------------------------------------------------
Leonard-Lehdet
-------------------------------------------------------------------------------

e|--8----8----7---10-7-------------------5-----5---7-----10-7----------------|
B|----10---10---8------8-6-8-10-10-8-6-----5-----5---8--------8-6-8-10-8-6-5-|
G|-------------------------------------9-----5---------7---------------------|
D|---------------------------------------------------------------------------|
A|---------------------------------------------------------------------------|
E|---------------------------------------------------------------------------|

e|---------------------------------------------------------------------------|
B|---------------------------------------------------------------------------|
G|---5-7-9-11-9-7-4-----4-5-----------------5-7-9-11-9-7-4-----4-5-4---------|
D|-7----------------5-7-----7-7-6-7-9-6---7----------------5-7-------7-6-----|
A|--------------------------------------7------------------------------------|
E|---------------------------------------------------------------------------|

e|---------------------------------------------------------------------------|
B|---------------------------------------------------------------------------|
G|---------------------------------------------------------------------------|
D|-4-6-7-5-5-4-----------------------------5-5-4-----------------------------|
A|-------------7-5-2---0-2-3-0-0---0-2-----------7-5-2---0-2-3-2-0-------0---|
E|-------------------3-----------4-----4-0-------------3-----------4-2-4-----|

e|-17-17-17-17-19-20-19-17-15-15-15-17-19-17-15-13-15-17-18-20-18-17-15-13-12-|
B|----------------------------------------------------------------------------|
G|----------------------------------------------------------------------------|
D|----------------------------------------------------------------------------|
A|----------------------------------------------------------------------------|
E|----------------------------------------------------------------------------|

e|--10-12-10-12-----5-5-7-8-7-5-5-3-3-3-3-3-2-1-3-5-5-4-2-4-5----------------|
B|---------------------------------------------------------------------------|
G|----------------5-----4-5-4-2-2-0-0-0-0-0-----0-2-2-1---1-2----------------|
D|--------------7---7-7---------------------4-3---------4--------------------|
A|---------------------------------------------------------------------------|
E|---------------------------------------------------------------------------|

e|------------------------------------------------------------------------------|
B|------------------------------------------------------------------------------|
G|-12-12-11-9-7---------------------------12-12-11-9-7--------------------------|
D|--------------9----7-9-10-7-7-6-7-9-6----------------9----7-9-10-9-7-6-4-6-7--|
A|----------------10--------------------7----------------10---------------------|
E|------------------------------------------------------------------------------|

e|-8------8------7-----10-7-----------------5-----8-5---3-----3--------------|
B|---10-----10-----8--------8-6-8-10-8-6-5\---5-------5---3------------------|
G|------9------9-----7--------------------------5-----------4---10-----------|
D|-----------------------------------------------------------------7-7-10----|
A|---------------------------------------------------------------------------|
E|---------------------------------------------------------------------------|

e|------------------5-----||
B|----------------7---5---||
G|--------------5---------||
D|--------6-7-7-----------||
A|--7-7-9-----------------||
E|------------------------||
Tap to rate this tab
# A B C D E F G H I J K L M N O P Q R S T U V W X Y Z