Guitaretab - guitar tabs
Song name
# A B C D E F G H I J K L M N O P Q R S T U V W X Y Z

Misc Unsigned Bands - Dead Jon - Legend Of Dead Jon tab

Song: Legend of Dead Jon
Artist: Dead Jon
Album: Funeral Gone Wrong
Tabbed by: Himself (Jon Clarke)

Tuning: d-G-C-F-A-D
Acoustic Intro:
|---------------------|
|-------5-7b9b7-5-----|
|---5-7-----------7-5-| 
|-7-------------------|x5
|---------------------|
|---------------------|

Distortion:
                  Last Time *Whammy
|-------------|   |-----0*---|
|-------------|   |-----17*--|
|-------------|   |----------|
|------5-5--5-|x5 |-7==------|
|-33333333333-|   |-5==------|
|-------------|   |--------0-|

Lyrics: He is known to be alive
|-&-&-&-&-&-&-&-&-&-&-&-|-----------|
|-&-&-&-&-&-&-&-&-&-&-&-|-----------|
|-&-&-&-&-&-&-&-&-&-&-&-|-----------|
|-&-&-&-&-&-&-&-&-&-&-&-|-----4---4-|
|-&-&-&-&-&-&-&-&-&-&-&-|-----2---2-|
|-&-&-&-&-&-&-&-&-&-&-&-|-0000-0000-|

But He Isnít
|-&-&-&-&-&-&-|-------------|
|-&-&-&-&-&-&-|-------------|
|-&-&-&-&-&-&-|-------------|
|-&-&-&-&-&-&-|-----4----45-|
|-&-&-&-&-&-&-|-----2----23-|
|-&-&-&-&-&-&-|-0000-0000---|

He isnít your average zombie
|-&-&-&-&-&-&-&-&-&-&-&-&-|-------------|
|-&-&-&-&-&-&-&-&-&-&-&-&-|-------------|
|-&-&-&-&-&-&-&-&-&-&-&-&-|-------------|
|-&-&-&-&-&-&-&-&-&-&-&-&-|-----4----45-|
|-&-&-&-&-&-&-&-&-&-&-&-&-|-----2----23-|
|-&-&-&-&-&-&-&-&-&-&-&-&-|-0000-0000---|

Zombies canít play guitar
|-&-&-&-&-&-&-&-&-&-&-&-&-|-------------|
|-&-&-&-&-&-&-&-&-&-&-&-&-|-------------|
|-&-&-&-&-&-&-&-&-&-&-&-&-|-------------|
|-&-&-&-&-&-&-&-&-&-&-&-&-|-----4----45-|
|-&-&-&-&-&-&-&-&-&-&-&-&-|-----2----23-|
|-&-&-&-&-&-&-&-&-&-&-&-&-|-0000-0000---|

Chorus:
Some say heís a killer
|---------|
|---------|
|---------|
|-9-4-5-2-|
|-7-2-3-0-|
|---------|

Some say heís dead
|-----------|
|-----------|
|-----------|
|-9-4-5-5==-|
|-7-2-3-3==-|
|-----------|   

They arenít right though
|---------|
|---------|
|---------|
|-9-4-5-2-|
|-7-2-3-0-|
|---------|

THATíS ME THEIR TALKING ABOUT!!!
|&-&-&-&-&-&-&-&-&-&-&-&-&-&|
|-&-&-&-&-&-&-&-&-&-&-&-&-&-|
|&-&-&-&-&-&-&-&-&-&-&-&-&-&|
|-&-&-&-&-&-&-&-&-&-&-&-&-&-|
|&-&-&-&-&-&-&-&-&-&-&-&-&-&|
|-&-&-&-&-&-&-&-&-&-&-&-&-&-|


Bridge:
|-----------------------------|
|-----------------------------|
|-----------------------------|
|-----------------------------|x5
|--------2PH------3p2p0h3p2p0-|
|-0-00023----0-000------------|
[ Tab from: http://www.guitaretab.com/m/misc-unsigned-bands/109967.html ]
Verse 2:
Yeah, it's me, Dead Jon
|---------------------------|
|---------------------------|
|---------------------------|
|---------------------------|
|---------------------------|
|-0-0-0-0-0-0-0-0-0-0-0-0-3~|

I Come when you SLEEP!
|---------------------------|
|---------------------------|
|---------------------------|
|---------------------------|
|---------------------------|
|-0-0-0-0-0-0-0-0-0-0-0-0-3~|

I play you Melodys. 
|---------------------------|
|---------------------------|
|---------------------------|
|---------------------------|
|---------------------------|
|-0-0-0-0-0-0-0-0-0-0-0-0-3~|

Medodys to make your life misrabled!
|---------------------------|
|---------------------------|
|---------------------------|
|---------------------------|
|---------------------------|
|-0-0-0-0-0-0-0-0-0-0-0-0-3~|


|------------------------|
|------------------------|
|------------------------|
|------------------------|x3
|---------------------2~-|
|-0-0-3~-0-0-3~-0-0-23---|

Chorus:
Some say heís a killer
|---------|
|---------|
|---------|
|-9-4-5-2-|
|-7-2-3-0-|
|---------|

Some say heís dead
|-----------|
|-----------|
|-----------|
|-9-4-5-5==-|
|-7-2-3-3==-|
|-----------|   

They arenít right though
|---------|
|---------|
|---------|
|-9-4-5-2-|
|-7-2-3-0-|
|---------|

THATíS ME THEIR TALKING ABOUT!!!
|&-&-&-&-&-&-&-&-&-&-&-&-&-&|
|-&-&-&-&-&-&-&-&-&-&-&-&-&-|
|&-&-&-&-&-&-&-&-&-&-&-&-&-&|
|-&-&-&-&-&-&-&-&-&-&-&-&-&-|
|&-&-&-&-&-&-&-&-&-&-&-&-&-&|
|-&-&-&-&-&-&-&-&-&-&-&-&-&-|


Some say heís a killer
|---------|
|---------|
|---------|
|-9-4-5-2-|
|-7-2-3-0-|
|---------|

Some say heís dead
|-----------|
|-----------|
|-----------|
|-9-4-5-5==-|
|-7-2-3-3==-|
|-----------|   

They arenít right though
|---------|
|---------|
|---------|
|-9-4-5-2-|
|-7-2-3-0-|
|---------|

THATíS ME THEIR TALKING ABOUT!!!
|&-&-&-&-&-&-&-&-&-&-&-&-&-&|
|-&-&-&-&-&-&-&-&-&-&-&-&-&-|
|&-&-&-&-&-&-&-&-&-&-&-&-&-&|
|-&-&-&-&-&-&-&-&-&-&-&-&-&-|
|&-&-&-&-&-&-&-&-&-&-&-&-&-&|
|-&-&-&-&-&-&-&-&-&-&-&-&-&-|

Outro
|----------|----------|----------|--------|
|----------|----------|----------|--------|
|----------|----------|----------|--------|
|----------|----------|----------|--------|
|----------|----------|----------|--------|
|-0-0-0-3~-|-0-0-0-3~-|-0-0-0-3~-|0-0-0-0-|

End

Key:
~:Vibrato
&:Rest
=:sustain
==:Long Sustain
Related for Dead Jon - Legend Of Dead Jon tab