Song name
# A B C D E F G H I J K L M N O P Q R S T U V W X Y Z

Misc Unsigned Bands - Deives Collins - If Tonight I Make My Rise tab

This is a song I wrote for my love in Nevada a while ago.  You can't understand this if 
don't know the song, so I hope to have it on YouTube very soon.  My username is 
 As soon as it's up, I'll post a link for it.  In the meantime, here 'tis.

/ = slide to

Intro

|----------------------------------|
|----------------------------------|
|--2-----2-----2---2-----2-----2---|  Repeat
|----0-0---0-0-------0-0---0-0-----|   Once
|----------------------------------|
|----------------------------------|

Lyrics Begin

|------------------------------------------------------------------|
|------------------------------------------------------------------|
|--2-----2-----4---6-----6-----4---2-----2-----2---2-----2-----2---|   Repeat
|----0-0---0-0---2---4-4---4-4---2---0-0---0-0-------0-0---0-0-----|    Once
|------------------------------------------------------------------|
|------------------------------------------------------------------|

1  Here        With You        To - night
2  What  Did   I   Do          This Time?

|-------------------------------------------------------------------|
|-------------------------------------------------------------------|
|--4-----4-----6---7-----7-----11---9-----9-----9---9-----9-----9---|
|----2-2---2-2---4---5-5---5-5----9---7-7---7-7-------7-7---7-7-----|
|-------------------------------------------------------------------|
|-------------------------------------------------------------------|

   Why   Are   You Here        With  Me?

|-------------------------------------------------------------------|
|-------------------------------------------------------------------|
|--4-----4-----6---7-----7-----11---9-----9-----9---9-----9-----9---|
|----2-2---2-2---4---5-5---5-5----9---7-7---7-7-------7-7---7-7-7---|
|-------------------------------------------------------------------|
|-------------------------------------------------------------------|

   Why   Have  You Set         Me   Free?

|------------------------------------------------------|
|------------------------------------------------------|
|--6-6-6-2-2-4---2-2-4-6-7---6-6-6-2-2-4---2-2-4-6-7---|
|--4-4-4-0-0-2---0-0-2-4-5---4-4-4-0-0-2---0-0-2-4-5---|
|------------------------------------------------------|
|------------------------------------------------------|

   I don't know |But to me,  |Suppose       God knows,
   your reason  | it means   |Love's in     it's not
                | the world  |season        what I deserve

Chorus

|--------------------------------------------------------------------------|
|--------------------------------------------------------------------------|
|--2-2-4-6-2-4-4-2-2-2-4-4-6-7---2-2-4-6-2-4-4-2-2-2-11-11-11-9-7-9-9/11---|
|--0-0-2-4-0-2-2-0-0-0-2-2-4-5---0-0-2-4-0-2-2-0-0-0-9--9--9--7-5-7-7/9----|
|--------------------------------------------------------------------------|
|--------------------------------------------------------------------------|

   If tonight I make my rise,  | Know that you made it worthwhile, sweet
   sweet girl, to the Heavens  | girl, with your ludicrous love
   above

|------------------------------------------------------|
|------------------------------------------------------|
|--6-6-6-2-2-4---2-2-4-6-7---6-6-6-2-2-4---2-2-4-6-7---|   Repeat
|--4-4-4-0-0-2---0-0-2-4-5---4-4-4-0-0-2---0-0-2-4-5---|    Once
|------------------------------------------------------|
|------------------------------------------------------|

1  Makes no    | You must be|If you look | I am sure,
   sense to go | out of your|around and  | you'll find
   for me      | mind       |see         |

2  It's you I'm| I suppose, |And I swear | 'Til beyond
   meant to    | that's why |that I'm    | the end of
   live for    | you're mine|yours       | time

(play Chorus)

Solo

|----------------------------------------------------------------------------|
|----------------------------------------------------------------------------|
|--11-------11-------11---11-------11-------11---13----------13----------13--|
|-----9-9-9----9-9-9----9----9-9-9----9-9-9----9----11-11-11----11-11-11-----|
|----------------------------------------------------------------------------|
|----------------------------------------------------------------------------|

|-----------------------------------------------------------------------------|
|-----------------------------------------------------------------------------|
|---9-------9-------9---11-------11-------11---11---------11-------11---13----|
|11---7-7-7---7-7-7---7----9-9-9----9-9-9----9----9-9-9------9-9-9----9----11-|
|-----------------------------------------------------------------------------|
|-----------------------------------------------------------------------------|

|---------------------------------------------------------------------------|
|---------------------------------------------------------------------------|
|-------13----------13----7-------9-------11-------11-------11---11-------11|
|-11-11----11-11-11----11---5-5-5---7-7-7----9-9-9----9-9-9----9----9-9-9-9-|
|---------------------------------------------------------------------------|
|---------------------------------------------------------------------------|

(play softly)

|--------------------------------------------------|
|--------------------------------------------------|
|--7-7-7-2-2---2-2-4-6-7---7-7-7-2-2---2-2-4-6-7---|
|--5-5-5-0-0---0-0-2-4-5---5-5-5-0-0---0-0-2-4-5---|
|--------------------------------------------------|
|--------------------------------------------------|

   I don't   | why I've |  By the good|I've been
   understand| been     |  Lord's hand|ensouled anew
             | blessed  |             |
             | with you |             |

(softly play chorus)

(play extremely softly and slowly and let final note strum ring out)

|-------------------------------|
|-------------------------------|
|--2------2------4------6------2|
|--0------0------2------4------0|
|-------------------------------|
|-------------------------------|

   If tonight   I make   my  rise . . .

Deives Collins
Tap to rate this tab
 
# A B C D E F G H I J K L M N O P Q R S T U V W X Y Z