Song name
# A B C D E F G H I J K L M N O P Q R S T U V W X Y Z

Misc Unsigned Bands - Ankla - Deceit tab

Help us improve GuitareTab! Take a short survey!
-------------------------------------------------------------------------------
			     Deceit intro - Ankla
-------------------------------------------------------------------------------
Tabbed by: ivan

Official Site http://www.ankla1.com/

                                   This is the begging acoustic part
    *let ring
       TTTTT
e|---------------------------------------------------------------------------|
B|-----------------------8---------------------------------------------------|
G|-----77777*-----7-9-10------------7-9-10-----------7-9-----9-10-9-7-9p7----|
D|---------------------------10-10----------8-8--10------7----------------10-|
A|---------------------------------------------------------------------------|
E|---------------------------------------------------------------------------|  
   
    *let ring
     TTTTT               this is the heavy part
e|---------------------------------------------------------------------------|
B|---------------------------------------------------------------------------|
G|-------------------3-------------------------------------------------------|
D|---33333*----3-5-6--------3-5-6---------3-5----5-6-5-3-5p3-----------------|
A|----------------------6-6-------4-4---6-----3---------------6--------------|
E|---------------------------------------------------------------------------|




T tremolo picking
| p  pull-off

===============================================================================


Related for Ankla - Deceit tab