Song name
# A B C D E F G H I J K L M N O P Q R S T U V W X Y Z

Misc Unsigned Bands - North Of The Woods - Stabbed With A Spoon tab

Help us improve GuitareTab! Take a short survey!
Artist: North of the Woods
Song: Stabbed With A Spoon
Album: Ghosts Never Sleep
Tuning: Drop C

www.myspace.com/northofthewoods

I'm pretty sure this tab is 99% correct. Any questions or comments, my contact info will 
at the bottom. By the way, I'm not the best at tabbing music, so bare with me please.

R = Rest
. = Palm Mute

Intro (0:00-0:18)

D:-------------------------------------------------------------|
A:-------------------------------------------------------------|
F:-------------------------------------------------------------|
C:-------------------------------------------------------------|
G:---------8p0-8p0-7p0-7p0-7p0-7p0--R--8p0-8p0-5p0-5p0-5p0-5p0-|
C:-000-000-----------------------------------------------------|
   ... ...

Intro cont.

D:-------------------------------------------------------------|
A:-------------------------------------------------------------|
F:-------------------------------------------------------------|
C:-------------------------------------------------------------|
G:-7p0-7p0-3p0-3p0-3p0-3p0--R--10p0-10p0-8p0-8p0-7p0-7p0-------|
C:-------------------------------------------------------------|

(0:18-0:54)
D:-----------------------------------------------------------------|
A:-----------------------------------------------------------------|
F:-----------------------------------------------------------------|
C:-----------------------------------------------------------------|
G:---------8p0-8p0-7p0-7p0-7p0-7p0---------8p0-8p0-5p0-5p0-5p0-5p0-|
C:-000-000-------------------------000-000-------------------------|
   ... ...                         ... ...

D:-------------------------------------------------------------------|
A:-------------------------------------------------------------------|
F:-------------------------------------------------------------------|
C:-------------------------------------------------------------------|
G:---------7p0-7p0-3p0-3p0-3p0-3p0---------10p0-10p0-8p0-8p0-7p0-7p0-|
C:-000-000-------------------------000-000---------------------------|
   ... ...                         ... ...

Bridge (0:55-1:09)

D:------------------------------------------------------|
A:------------------------------------------------------|
F:------------------------------------------------------|
C:------------------------------------------------------|
G:--/8~--7--10--5--3-5-7--8~--7--10--12-10-8-7-7h8p7-5--|
C:------------------------------------------------------|

Verse (1:10-1:36)

D:--------------------------------------------------|
A:--------------------------------------------------|
F:--------------------------------------------------|
C:--------------------------------------------------|
G:-----5555-8888-----7777-10101010-----12121212-----|
C:-000-----------000---------------000----------000-|

Verse cont.

D:--------------------------------------------------|
A:--------------------------------------------------|
F:--------------------------------------------------|
C:--------------------------------------------------|
G:-12121212-8888-----10101010-7777-8888-5555--------|
C:---------------000--------------------------------|

(1:37-2:37)

D:-------------------------------------------------------------------|
A:-------------------------------------------------------------------|
F:-------------------------------------------------------------------|
C:-------------------------------------------------------------------|
G:-----8---8h10-----10-8-7h8p7-3------8---8h10-----8888-7777-5555-7--|
C:-888---8------888---------------888---8------888-------------------|
   ...   .      ...               ...   .      ...

D:--------------------------------------------------------------------------|
A:--------------------------------------------------------------------------|
F:--------------------------------------------------------------------------|
C:--------------------------------------------------------------------------|
G:-----8---8h10-----12---8h10-----13p12------8---8h12-----12p0-10p0-8p0-7p0-|
C:-888---8------888----8------888--------888---8------888-------------------|
   ...   .      ...    .      ...        ...   .      ...
(2:38-2:40)

D:------|
A:------|
F:------|
C:--0~--|
G:--0~--|
C:--0~--|

Breakdown (2:41-3:11)

                          First Time      Second Time
D:-------------------|------------------|--------------|
A:-------------------|------------------|--------------|
F:-------------------|------------------|--------------|
C:-------------------|-7---10-----------|--------------|
G:-------------------|---8----8-7h8p7-3-|-8-5-7-3-5-5*-|
C:-000-000-000-0-000-|------------------|--------------|
   ... ... ... . ...                                P.H

Outro (3:12-4:23)

D:-------------------------------------------------------------------|
A:-------------------------------------------------------------------|
F:-------------------------------------------------------------------|
C:--7p0-7p0-7p0-7p0-5p0-5p0-5p0-5p0-3p0-3p0-3p0-3p0-2p0-2p0-2p0-2p0--|
G:-------------------------------------------------------------------|
C:-------------------------------------------------------------------|

(4:24-4:48)

D:---------------------------------------------|
A:---------------------------------------------|
F:---------------------------------------------|
C:--7p0-7p0-7p0-7p0-5p0-5p0-5p0-5p0--3~-2~--0~-|
G:------------------------------------------0~-|
C:------------------------------------------0~-|


That's it. My contact information will be below this. Maybe an update with the second 
down the road but for now, this is it.

E-Mail: pumabear25@hotmail.com
AIM: x Itz Rick x
Related for North Of The Woods - Stabbed With A Spoon tab