Song name
# A B C D E F G H I J K L M N O P Q R S T U V W X Y Z

Misc Unsigned Bands - Screams From The Abyss - Wrath tab

Help us improve GuitareTab! Take a short survey!
Intro: x2
D---------------------------12*-------------------------------------|
A-5*----7*-------5*----7*-------------------------------------------|
F---5*----7*-------5*----7*-----------------------------------------|
C-------------------------------------------------------------------|
G-------------------------------------------------------------------|
C-------------------------------------------------------------------|

Pre-Verse/Verse
D---------------------------------------------------------------------------|
A---------------------------------------------------------------------------|
F---------------------------------------------------------------------------|
C---------------------4-2/5----------5-4-2----------------------------------|
G---------------------2-2/3----------------5-3-2-2--------------------------|
C-0-2-5-0-3*--0-2-5-0--------0-2-5-0-------------2--------------------------|
  . . . .     . . . .        . . . .

Chorus
D---------------------------------------------------------------------------|
A---------------------------------------------------------------------------|
F---------------------------------------------------------------------------|
C-2-x-5--2-x-7--2-x-9--------11-----11-12------------12------12-------------|
G-2-x-3--2-x-5--2-x-7-999999-9-9999-9--10-1010101010-10-1010-10-------------|
C-2------2------2-----------------------------------------------------------|
                      ......   ....       . . . . .      . .
Related for Screams From The Abyss - Wrath tab