Song name
# A B C D E F G H I J K L M N O P Q R S T U V W X Y Z

Misc Unsigned Bands - Everyday Shooter - Robot Level tab

Help us improve GuitareTab! Take a short survey!
-------------------------------------------------------------------------------
		    Robot Level - Everyday Shooter by Jonathan Mak
-------------------------------------------------------------------------------
This is the song from the game everyone has been searching for.  No one has these tabs, 
I sat down for an hour and wrote them out.

Strumming rythem is nearly 100% accurate except for the final bridge before after the 
quiet part there in the middle.

Tabbed by: Jeff Maginniss
Email: peridot203@gmail.com

Tuning: Standard E-A-D-G-B-e

Tempo: quick paced blues

=========== Intro

   ^ ^ ^ ^         ^ ^ ^ ^           ^ ^ ^ ^         ^ ^ ^ ^
e|-3-3-3-2-2-2-2-2-0-0-0-2-2-2-2-2-|-3-3-3-2-2-2-2-2-0-0-0-2-2-2-2-2-|
B|-3-3-3-3-3-3-3-3-3-3-3-3-3-3-3-3-|-3-3-3-3-3-3-3-3-3-3-3-3-3-3-3-3-|
G|-2-2-2-2-2-2-2-2-2-2-2-2-2-2-2-2-|-2-2-2-2-2-2-2-2-2-2-2-2-2-2-2-2-|
D|-0-0-0-0-0-0-0-0-0-0-0-0-0-0-0-0-|-0-0-0-0-0-0-0-0-0-0-0-0-0-0-0-0-|
A|---------------------------------|---------------------------------|
E|---------------------------------|---------------------------------|

   ^ ^ ^ ^         ^ ^ ^ ^           ^ ^ ^ ^         ^ ^ ^ ^
e|-3-3-3-2-2-2-2-2-0-0-0-2-2-2-2-2-|-3-3-3-2-2-2-2-2-0-0-0-2-2-2-2-2-|
B|-3-3-3-3-3-3-3-3-3-3-3-3-3-3-3-3-|-3-3-3-3-3-3-3-3-3-3-3-3-3-3-3-3-|
G|-0-0-0-0-0-0-0-0-0-0-0-0-0-0-0-0-|-0-0-0-0-0-0-0-0-0-0-0-0-0-0-0-0-|
D|-x-x-x-x-x-x-x-x-x-x-x-x-x-x-x-x-|-x-x-x-x-x-x-x-x-x-x-x-x-x-x-x-x-|
A|-x-x-x-x-x-x-x-x-x-x-x-x-x-x-x-x-|-x-x-x-x-x-x-x-x-x-x-x-x-x-x-x-x-|
E|-3*3-3-3-3-3-3-3-3-3-3-3-3-3-3-3-|-3-3-3-3-3-3-3-3-3-3-3-3-3-3-3-3-|

x - performance note: open strings but slight palm mute to stop ring
* - fret with thumb

=========== End Intro

   ^ ^ ^ ^         ^ ^ ^ ^           ^ ^ ^ ^         ^ ^ ^ ^
e|-3-3-3-2-2-2-2-2-0-0-0-2-2-2-2-2-|-3-3-3-2-2-2-2-2-0-0-0-2-2-2-2-2-|
B|-3-3-3-3-3-3-3-3-3-3-3-3-3-3-3-3-|-3-3-3-3-3-3-3-3-3-3-3-3-3-3-3-3-|
G|-2-2-2-2-2-2-2-2-2-2-2-2-2-2-2-2-|-2-2-2-2-2-2-2-2-2-2-2-2-2-2-2-2-|
D|-0-0-0-0-0-0-0-0-0-0-0-0-0-0-0-0-|-0-0-0-0-0-0-0-0-0-0-0-0-0-0-0-0-|
A|---------------------------------|---------------------------------|
E|---------------------------------|---------------------------------|

   ^ ^ ^ ^         ^ ^ ^ ^           ^ ^ ^           ^ ^ ^
e|-3-3-3-2-2-2-2-2-0-0-0-2-2-2-2-2-|-3-3-3-3-3-3-3-3-3-3-3-3-3-3-3-3-|
B|-3-3-3-3-3-3-3-3-3-3-3-3-3-3-3-3-|-3-3-3-3-3-3-3-3-3-3-3-3-3-3-3-3-|
G|-0-0-0-0-0-0-0-0-0-0-0-0-0-0-0-0-|-0-0-0-0-0-0-0-0-0-0-0-0-0-0-0-0-|
D|-x-x-x-x-x-x-x-x-x-x-x-x-x-x-x-x-|-x-x-x-x-x-x-x-x-x-x-x-x-x-x-x-x-|
A|-x-x-x-x-x-x-x-x-x-x-x-x-x-x-x-x-|-x-x-x-x-x-x-x-x-x-x-x-x-x-x-x-x-|
E|-3*3-3-3-3-3-3-3-3-3-3-3-3-3-3-3-|-3-3-3-3-3-3-3-3-3-3-3-3-3-3-3-3-|

   ^ ^ ^ ^         ^ ^ ^ ^           ^ ^ ^ ^         ^ ^ ^ ^
e|-3-3-3-2-2-2-2-2-0-0-0-2-2-2-2-2-|-3-3-3-2-2-2-2-2-0-0-0-2-2-2-2-2-|
B|-3-3-3-3-3-3-3-3-3-3-3-3-3-3-3-3-|-3-3-3-3-3-3-3-3-3-3-3-3-3-3-3-3-|
G|-2-2-2-2-2-2-2-2-2-2-2-2-2-2-2-2-|-2-2-2-2-2-2-2-2-2-2-2-2-2-2-2-2-|
D|-0-0-0-0-0-0-0-0-0-0-0-0-0-0-0-0-|-0-0-0-0-0-0-0-0-0-0-0-0-0-0-0-0-|
A|---------------------------------|---------------------------------|
E|---------------------------------|---------------------------------|

   ^ ^ ^ ^         ^ ^ ^ ^           ^ ^ ^           ^ ^ ^
e|-3-3-3-2-2-2-2-2-0-0-0-2-2-2-2-2-|-3-3-3-3-3-3-3-3-3-3-3-3-3-3-3-3-|
B|-3-3-3-3-3-3-3-3-3-3-3-3-3-3-3-3-|-3-3-3-3-3-3-3-3-3-3-3-3-3-3-3-3-|
G|-0-0-0-0-0-0-0-0-0-0-0-0-0-0-0-0-|-0-0-0-0-0-0-0-0-0-0-0-0-0-0-0-0-|
D|-x-x-x-x-x-x-x-x-x-x-x-x-x-x-x-x-|-x-x-x-x-x-x-x-x-x-x-x-x-x-x-x-x-|
A|-x-x-x-x-x-x-x-x-x-x-x-x-x-x-x-x-|-x-x-x-x-x-x-x-x-x-x-x-x-x-x-x-x-|
E|-3*3-3-3-3-3-3-3-3-3-3-3-3-3-3-3-|-3-3-3-3-3-3-3-3-3-3-3-3-3-3-3-3-|

===========

   ^   ^    [-3-]      ^     ^       ^   ^   ^           ^     ^
e|-3---3----3-3-3--3---3-3---3-33-3|-3---3-3-3-3-3-3-3---3-3---3-33-3|
B|-3---3----3-3-3--3---3-3---3-33-3|-3---3-3-3-3-3-3-3---3-3---3-33-3|
G|-0---0----0-0-0--0---0-0---0-00-0|-0---0-0-0-0-0-0-0---0-0---0-00-0|
D|-2---2----2-2-2--0---0-0---0-00-0|-2---2-2-2-2-2-2-0---0-0---0-00-0|
A|-3---3----3-3-3--2---2-2---2-22-2|-3---3-3-3-3-3-3-2---2-2---2-22-2|
E|---------------------------------|---------------------------------|
            Triplet
Performance note: Strum direction:   d   d    d u d  d   d d   d du d


   ^   ^    [-3-]      ^     ^       ^   ^   ^   ^
e|-3---3-3--3-3-3--3---3-3---3-33-3|-2-2-2-2-3-3-3-3-3-3-3-3-3-3-3-3-|
B|-3---3-3--3-3-3--3---3-3---3-33-3|-3-3-3-3-3-3-3-3-3-3-3-3-3-3-3-3-|
G|-0---0-0--0-0-0--0---0-0---0-00-0|-2-2-2-2-0-0-0-0-0-0-0-0-0-0-0-0-|
D|-2---2-2--2-2-2--0---0-0---0-00-0|-0-0-0-0-0-0-0-0-0-0-0-0-0-0-0-0-|
A|-3---3-3--3-3-3--2---2-2---2-22-2|-x-x-x-x-0-0-0-0-0-0-0-0-0-0-0-0-|
E|---------------------------------|---------3*3-3-3-3-3-3-3-3-3-3-3-|
                                            |-Let-Ring---------------|

===========


   ^ ^ ^ ^         ^ ^ ^ ^           ^ ^ ^ ^         ^ ^ ^ ^
e|-3-3-3-2-2-2-2-2-0-0-0-2-2-2-2-2-|-3-3-3-2-2-2-2-2-0-0-0-2-2-2-2-2-|
B|-3-3-3-3-3-3-3-3-3-3-3-3-3-3-3-3-|-3-3-3-3-3-3-3-3-3-3-3-3-3-3-3-3-|
G|-2-2-2-2-2-2-2-2-2-2-2-2-2-2-2-2-|-2-2-2-2-2-2-2-2-2-2-2-2-2-2-2-2-|
D|-0-0-0-0-0-0-0-0-0-0-0-0-0-0-0-0-|-0-0-0-0-0-0-0-0-0-0-0-0-0-0-0-0-|
A|---------------------------------|---------------------------------|
E|---------------------------------|---------------------------------|

   ^ ^ ^ ^         ^ ^ ^ ^           ^ ^ ^ ^         ^ ^ ^ ^
e|-3-3-3-2-2-2-2-2-0-0-0-2-2-2-2-2-|-3-3-3-2-2-2-2-2-0-0-0-2-2-2-2-2-|
B|-3-3-3-3-3-3-3-3-3-3-3-3-3-3-3-3-|-3-3-3-3-3-3-3-3-3-3-3-3-3-3-3-3-|
G|-0-0-0-0-0-0-0-0-0-0-0-0-0-0-0-0-|-0-0-0-0-0-0-0-0-0-0-0-0-0-0-0-0-|
D|-x-x-x-x-x-x-x-x-x-x-x-x-x-x-x-x-|-x-x-x-x-x-x-x-x-x-x-x-x-x-x-x-x-|
A|-x-x-x-x-x-x-x-x-x-x-x-x-x-x-x-x-|-x-x-x-x-x-x-x-x-x-x-x-x-x-x-x-x-|
E|-3*3-3-3-3-3-3-3-3-3-3-3-3-3-3-3-|-3-3-3-3-3-3-3-3-3-3-3-3-3-3-3-3-|

   ^ ^ ^ ^         ^ ^ ^ ^           ^ ^ ^ ^         ^ ^ ^ ^
e|-3-3-3-2-2-2-2-2-0-0-0-2-2-2-2-2-|-3-3-3-2-2-2-2-2-0-0-0-2-2-2-2-2-|
B|-3-3-3-3-3-3-3-3-3-3-3-3-3-3-3-3-|-3-3-3-3-3-3-3-3-3-3-3-3-3-3-3-3-|
G|-2-2-2-2-2-2-2-2-2-2-2-2-2-2-2-2-|-2-2-2-2-2-2-2-2-2-2-2-2-2-2-2-2-|
D|-0-0-0-0-0-0-0-0-0-0-0-0-0-0-0-0-|-0-0-0-0-0-0-0-0-0-0-0-0-0-0-0-0-|
A|---------------------------------|---------------------------------|
E|---------------------------------|---------------------------------|

   ^ ^ ^ ^         ^ ^ ^ ^           ^ ^ ^           ^ ^ ^
e|-3-3-3-2-2-2-2-2-0-0-0-2-2-2-2-2-|-3-3-3-3-3-3-3-3-3-3-3-3-3-3-3-3-|
B|-3-3-3-3-3-3-3-3-3-3-3-3-3-3-3-3-|-3-3-3-3-3-3-3-3-3-3-3-3-3-3-3-3-|
G|-0-0-0-0-0-0-0-0-0-0-0-0-0-0-0-0-|-0-0-0-0-0-0-0-0-0-0-0-0-0-0-0-0-|
D|-x-x-x-x-x-x-x-x-x-x-x-x-x-x-x-x-|-x-x-x-x-x-x-x-x-x-x-x-x-x-x-x-x-|
A|-x-x-x-x-x-x-x-x-x-x-x-x-x-x-x-x-|-x-x-x-x-x-x-x-x-x-x-x-x-x-x-x-x-|
E|-3*3-3-3-3-3-3-3-3-3-3-3-3-3-3-3-|-3-3-3-3-3-3-3-3-3-3-3-3-3-3-3-3-|

   ^   ^    [-3-]      ^     ^       ^   ^   ^           ^     ^
e|-3---3----3-3-3--3---3-3---3-33-3|-3---3-3-3-3-3-3-3---3-3---3-33-3|
B|-3---3----3-3-3--3---3-3---3-33-3|-3---3-3-3-3-3-3-3---3-3---3-33-3|
G|-0---0----0-0-0--0---0-0---0-00-0|-0---0-0-0-0-0-0-0---0-0---0-00-0|
D|-2---2----2-2-2--0---0-0---0-00-0|-2---2-2-2-2-2-2-0---0-0---0-00-0|
A|-3---3----3-3-3--2---2-2---2-22-2|-3---3-3-3-3-3-3-2---2-2---2-22-2|
E|---------------------------------|---------------------------------|
            Triplet

   ^   ^    [-3-]   ^   ^    [-3---------------------------------------|   ^   ^   ^   ^
e|-3---3-3--3-3-3---3---3-3--3-3-3-|-3-3-3-3-3-3-3-3-3-3-3-3-3-3-3-3---|
B|-3---3-3--3-3-3---3---3-3--3-3-3-|-3-3-3-3-3-3-3-3-3-3-3-3-3-3-3-3---|
G|-0---0-0--0-0-0---0---0-0--0-0-0-|-0-0-0-0-0-0-0-0-0-0-0-0-0-0-0-0---|
D|-2---2-2--2-2-2---2---2-2--2-2-2-|-2-2-2-2-2-2-2-2-2-2-2-2-2-2-2-2---|
A|-3---3-3--3-3-3---3---3-3--3-3-3-|-3-3-3-3-3-3-3-3-3-3-3-3-3-3-3-3---|
E|---------------------------------|-----------------------------------|
            Triplet          Triplet

   ^ ^ ^   ^ ^   ^   ^ ^   ^             ^ ^   ^ ^ ^               ^
e|-x-x-x-3-x-x-3-x-3-x-x---3---3-3-|-----3-3---3-3-3---3-3---3-3-3-3-|
B|-3-3-3-3-3-3-3-3-3-3-3---3---3-3-|-----3-3---3-3-3---3-3---3-3-3-3-|
G|-0-0-0-0-0-0-0-0-0-0-0---0---0-0-|-----0-0---0-0-0---0-0---0-0-0-0-|
D|-2-2-2---2-2---2---2-2---2---2-2-|---------------2---2-2---2-2-2-2-|
A|-3-3-3---3-3---3---3-3---3---3-3-|---------------2---2-2---2-2-2-2-|
E|---------------------------------|-3-------2-----0---0-0-----------|

       ^ ^   ^ ^ ^               ^       ^ ^   ^ ^ ^
e|-----3-3---3-3-3---3-3---3-3-3-3-|-----3-3---3-3-3-----------------|
B|-----3-3---3-3-3---3-3---3-3-3-3-|-----3-3---3-3-3-----------------|
G|-----0-0---0-0-0---0-0---0-0-0-0-|-----0-0---0-0-0-----------------|
D|---------------2---2-2---2-2-2-2-|---------------2-----------------|
A|---------------2---2-2---2-2-2-2-|---------------2-----------------|
E|-3-------2-----0---0-0-----------|-3-------2-----0-----------------|
                                                   |-Hold------------|

e|-(3)-----------------------------|----------------|------------------|
B|-(3)-----------------------------|----------------|-See Line Below---|
G|-(0)-----------------------------|----------------|------------------|
D|-(2)-----------------------------|----------------|------------------|
A|-(2)-----------------------------|----------------|------------------|
E|-(0)-----------------------------|----------------|------------------|
 |-Hold ---------------------------------------------------------------|


===========

     ^                 ^       ^       ^                   ^     ^
e|---3-2-3-------------------------|---3-2-3---------------0---------|
B|---------3---3-------3p0h3p0-0---|---------3---3-------3---3p0-0---|
G|-------------0-----0-------------|-------------0-----0-------------|
D|---------------------------------|---------------------------------|
A|-----------------3---------------|-----------------3---------------|
E|-0-------------------------------|-0-------------------------------|
                               |Let Ring                         |Ring

     ^                 ^       ^       ^                   ^     ^
e|---3-2-3-------------------------|---3-2-3---------------0---------|
B|---------3---3-------3p0h3p0-0---|---------3---3-------3---3-0-0---|
G|-------------0-----0-------------|-------------0-----0-------------|
D|---------------------------------|---------------------------------|
A|-----------------3---------------|-----------------3---------------|
E|-0-------------------------------|-0-------------------------------|
                               |Let Ring                         |Ring

===========

   ^   ^      ^    ^   ^      ^      ^   ^      ^    ^   ^      ^
e|-3---3---33-3-xxx3---3---33-3-xxx|-3---3---33-3-xxx3---3---33-3-xxx|
B|-3---3---33-3-xxx3---3---33-3-xxx|-3---3---33-3-xxx3---3---33-3-xxx|
G|-0---0---00-0-xxx0---0---00-0-xxx|-0---0---00-0-xxx0---0---00-0-xxx|
D|-2---2---22-2-xxx2---2---22-2-xxx|-2---2---22-2-xxx2---2---22-2-xxx|
A|-2---2---22-2-xxx2---2---22-2-xxx|-3---3---33-3-xxx3---3---33-3-xxx|
E|-0---0---00-0-xxx0---0---00-0-xxx|---------------------------------|


   ^   ^      ^    ^   ^      ^      ^   ^      ^    ^   ^      ^
e|-3---3---33-3-xxx3---3---33-3-xxx|-3---3---33-3-xxx3---3---33-3-xxx|
B|-3---3---33-3-xxx3---3---33-3-xxx|-3---3---33-3-xxx3---3---33-3-xxx|
G|-0---0---00-0-xxx0---0---00-0-xxx|-0---0---00-0-xxx0---0---00-0-xxx|
D|-2---2---22-2-xxx2---2---22-2-xxx|-2---2---22-2-xxx2---2---22-2-xxx|
A|-2---2---22-2-xxx2---2---22-2-xxx|-3---3---33-3-xxx3---3---33-3-xxx|
E|-0---0---00-0-xxx0---0---00-0-xxx|---------------------------------|

       ^ ^   ^ ^ ^             [3]       ^ ^   ^ ^ ^             [3]
e|-----3-3---3-3-3---3-3--3-33-333-|-----3-3---3-3-3---3-3--3-33-333-|
B|-----3-3---3-3-3---3-3--3-33-333-|-----3-3---3-3-3---3-3--3-33-333-|
G|-----0-0---0-0-0---0-0--0-00-000-|-----0-0---0-0-0---0-0--0-00-000-|
D|---------------2---2-2--2-22-222-|---------------2---2-2--2-22-222-|
A|---------------2---2-2--2-22-222-|---------------2---2-2--2-22-222-|
E|-3-------2-----0---0-0--0-00-000-|-3-------2-----0---0-0--0-00-000-|
                               |Trip                             |Trip

       ^ ^   ^ ^ ^
e|-----3-3---3-3-3-----------------|
B|-----3-3---3-3-3-----------------|
G|-----0-0---0-0-0-----------------|
D|---------------2-----------------|
A|---------------2-----------------|
E|-3-------2-----0-----------------|
                 |-Hold------------|

e|-(3)-----------------------------|----------------|------------------|
B|-(3)-----------------------------|----------------|-See Line Below---|
G|-(0)-----------------------------|----------------|------------------|
D|-(2)-----------------------------|----------------|------------------|
A|-(2)-----------------------------|----------------|------------------|
E|-(0)-----------------------------|----------------|------------------|
 |-Hold ---------------------------------------------------------------|


=========== Outro


e|---3p0-------0-----3p0-----0-----|---3p0-------0-----3-3-------3-3-|
B|-3-------3-----3-3-----3-3---3---|---------3-----3---------0-0-----|
G|-0---------------0---------------|-0---------------0---------------|
D|-2---------------2---------------|-2---------------2---------------|
A|-3---------------3---------------|-2---------------2---------------|
E|---------------------------------|-0---------------0---------------|

Performance note: Let ring throughout


e|-3-------------------------------|-3-------------------------------|
B|-3-------------------------------|-3-------------------------------|
G|-0-------------------------------|-0-------------------------------|
D|-2-------------------------------|-2-------------------------------|
A|-3-------------------------------|-2-------------------------------|
E|---------------------------------|-0-------------------------------|
   |-Hold--------------------------| |-Hold--------------------------|

Performance note: Arpeggiate final chord over first 2 beats.


| /  slide up
| \  slide down
| ^  accent note on downstroke
| h  hammer-on
| p  pull-off
| ~  vibrato
| +  harmonic
| x  Mute note
===============================================================================
Related for Everyday Shooter - Robot Level tab