Song name
# A B C D E F G H I J K L M N O P Q R S T U V W X Y Z

Misc Unsigned Bands - Cody Huges Davidson Band - Travelin Man tab

Here's My First Tab And I Know Its About 99% Correct
h-hammeron     b-bend   \-slide up

-------------------------------------------------------------------------|
-------------------------------------------------------------------------|
---------12------------12------------12--b14--12---------12-----------12-|
--12h14--------12h14---------12h14----------------12h14--------12h14-----|
-------------------------------------------------------------------------|
-------------------------------------------------------------------------|

-------------------------------------------------------------------------|
----------------14\17--15------------------------------------------------|
----------12------------------------12-----------12----------12---b14-12-|
---12h14---------------------12h14--------12h14-------12h14--------------|
-------------------------------------------------------------------------|
-------------------------------------------------------------------------|

------------------------------------------------------------------------|
---------13--12---------------------------------------------------------|
-12--12----------14--12-------12h14--12---------------------------------|
-------------------------14---------------------------------------------|
------------------------------------------------------------------------|
------------------------------------------------------------------------|
Tap to rate this tab
# A B C D E F G H I J K L M N O P Q R S T U V W X Y Z