Song name
# A B C D E F G H I J K L M N O P Q R S T U V W X Y Z

Misc Unsigned Bands - Fang - I Wanna Be On Tv tab

-------------------------------------------------------------------------------
I Wanna Be On TV - Fang
Landshark/Where The Wild Things Are
-------------------------------------------------------------------------------
Tabbed by: axeslash
Email: holmzito@yahoo.com

Tuning: Standard

e|---------------------------|
B|---------------------------|
G|---------------------------|
D|-5----5----5----5--3-3-3-3-|
A|-3--0-3--0-3--0-3--1-1-1-1-|
E|---------------------------| x8

e|-----------------------------------------------------------------------|
B|---------------------------------------------------------7-6-5-4-3^----|
G|-----------------------------------------------------------------------|
D|-7-7-7-7-7-7-7-7-9-9-9-9-9-9-9-9-10-10-10-10-10-10-10-10---------------|
A|-7-7-7-7-7-7-7-7-9-9-9-9-9-9-9-9-10-10-10-10-10-10-10-10---------------|
E|-5-5-5-5-5-5-5-5-7-7-7-7-7-7-7-7--8--8--8--8--8--8--8--8---------------|

e|---------------------------------------------------------------------------------|
B|---------------------------------------------------------------------------------|
G|---------------------------------------------------------------------------------|
D|-7-7-7-7-7-7-7-7-9-9-9-9-9-9-9-9-10-10-10-10-10-10-10-10-11-11-11-11-12-12-12-12-|
A|-7-7-7-7-7-7-7-7-9-9-9-9-9-9-9-9-10-10-10-10-10-10-10-10-11-11-11-11-12-12-12-12-|
E|-5-5-5-5-5-5-5-5-7-7-7-7-7-7-7-7--8--8--8--8--8--8--8--8--9--9--9--9-10-10-10-10-|

e|---------------------------|
B|---------------------------|
G|---------------------------|
D|-5----5----5----5--3-3-3-3-|
A|-3--0-3--0-3--0-3--1-1-1-1-|
E|---------------------------| x4

e|---------------------------------------------------------------------------------|
B|---------------------------------------------------------------------------------|
G|---------------------------------------------------------------------------------|
D|-7-7-7-7-7-7-7-7-9-9-9-9-9-9-9-9-10-10-10-10-10-10-10-10-11-11-11-11-12-12-12-12-|
A|-7-7-7-7-7-7-7-7-9-9-9-9-9-9-9-9-10-10-10-10-10-10-10-10-11-11-11-11-12-12-12-12-|
E|-5-5-5-5-5-5-5-5-7-7-7-7-7-7-7-7--8--8--8--8--8--8--8--8--9--9--9--9-10-10-10-10-|

e|--------------------------------------------------------------------------|
B|---------------------------------------------------------------------9----|
G|---------------------------------------------------------------------9----|
D|-7-7-7-7-7-7-7-7-9-9-9-9-9-9-9-9-10-10-10-10-10-10-10-10-11-11-11-11-9----|
A|-7-7-7-7-7-7-7-7-9-9-9-9-9-9-9-9-10-10-10-10-10-10-10-10-11-11-11-11-7----|
E|-5-5-5-5-5-5-5-5-7-7-7-7-7-7-7-7--8--8--8--8--8--8--8--8--9--9--9--9------|

e|---------------------------|     e|-------------------------|
B|---------------------------|     B|-------------------------|
G|---------------------------|     G|-------------------3^----|
D|-5----5----5----5--3-3-3-3-|     D|-5----5----5----5--------|
A|-3--0-3--0-3--0-3--1-1-1-1-|     A|-3--0-3--0-3--0-3--------|
E|---------------------------| x3  E|-------------------------|

e|-----------------------------------------------------------------------|
B|---------------------------------------------------------7-6-5-4-3^----|
G|-----------------------------------------------------------------------|
D|-7-7-7-7-7-7-7-7-9-9-9-9-9-9-9-9-10-10-10-10-10-10-10-10---------------|
A|-7-7-7-7-7-7-7-7-9-9-9-9-9-9-9-9-10-10-10-10-10-10-10-10---------------|
E|-5-5-5-5-5-5-5-5-7-7-7-7-7-7-7-7--8--8--8--8--8--8--8--8---------------|

e|---------------------------------------------------------------------------------|
B|---------------------------------------------------------------------------------|
G|---------------------------------------------------------------------------------|
D|-7-7-7-7-7-7-7-7-9-9-9-9-9-9-9-9-10-10-10-10-10-10-10-10-11-11-11-11-12-12-12-12-|
A|-7-7-7-7-7-7-7-7-9-9-9-9-9-9-9-9-10-10-10-10-10-10-10-10-11-11-11-11-12-12-12-12-|
E|-5-5-5-5-5-5-5-5-7-7-7-7-7-7-7-7--8--8--8--8--8--8--8--8--9--9--9--9-10-10-10-10-|

e|---------------------------|     e|--------------------------------|
B|---------------------------|     B|--------------------------------|
G|---------------------------|     G|-------------------3-3-3-3-5----|
D|-5----5----5----5--3-3-3-3-|     D|-5----5----5----5--3-3-3-3-3----|
A|-3--0-3--0-3--0-3--1-1-1-1-|     A|-3--0-3--0-3--0-3--1-1-1-1-3----|
E|---------------------------| x3  E|--------------------------------|



| /  slide up
| \  slide down
| h  hammer-on
| p  pull-off
| ~  vibrato
| +  harmonic
| x  Mute note
===============================================================================
Tap to rate this tab
 
# A B C D E F G H I J K L M N O P Q R S T U V W X Y Z