Song name
# A B C D E F G H I J K L M N O P Q R S T U V W X Y Z

Misc Unsigned Bands - Fus - Civil Defense tab

Help us improve GuitareTab! Take a short survey!
-------------------------------------------------------------------------------
Civil Defense - The F.U.'s
Kill For Christ
-------------------------------------------------------------------------------
Tabbed by: axeslash
Email: holmzito@yahoo.com

Tuning: Standard

The F.U.'s page at Taang! Records: http://www.taang.com/fusset.html

Opening Noise/Feedback
e|------------------0--------------------------------------------------|
B|------------------0------------0-----------------0-------------------|
G|-X////////-0------0----0-------0-----------------0-------------------|
D|-X////////-0------0----0-------0-----------------0-------------------|
A|-----------------------0-------------------------0-------------------|
E|---------------------------------------------------------------------|

e|-----------------------|
B|-----------------------|
G|-9-9-/12-12-9-9-/10-10-|
D|-9-9-/12-12-9-9-/10-10-|
A|-7-7-/10-10-7-7-/-8--8-|
E|-----------------------| x6

e|---------------------------------------------------------|
B|---------------------------------------------------------|
G|---------------9--5/7-9--5/7---------------9--5/7-9--5/7-|
D|-9--5/7-9--5/7-9--5/7-9--5/7-9--5/7-9--5/7-9--5/7-9--5/7-|
A|-9--5/7-9--5/7-7--3/5-7--3/5-9--5/7-9--5/7-7--3/5-7--3/5-|
E|-7--3/5-7--3/5---------------7--3/5-7--3/5---------------|

e|-----------------------|
B|-----------------------|
G|-9-9-/12-12-9-9-/10-10-|
D|-9-9-/12-12-9-9-/10-10-|
A|-7-7-/10-10-7-7-/-8--8-|
E|-----------------------| x4

e|---------------------------------------------------------|
B|---------------------------------------------------------|
G|---------------9--5/7-9--5/7---------------9--5/7-9--5/7-|
D|-9--5/7-9--5/7-9--5/7-9--5/7-9--5/7-9--5/7-9--5/7-9--5/7-|
A|-9--5/7-9--5/7-7--3/5-7--3/5-9--5/7-9--5/7-7--3/5-7--3/5-|
E|-7--3/5-7--3/5---------------7--3/5-7--3/5---------------|

e|----------------------------------------|
B|----------------------------------------|
G|-10-10-10-10-10-10-10-10-10-10-9--------|
D|-10-10-10-10-10-10-10-10-10-10-9--------|
A|--8--8--8--8--8--8--8--8--8--8-7--------|
E|----------------------------------------|


| /  slide up
| \  slide down
| h  hammer-on
| p  pull-off
| ~  vibrato
| +  harmonic
| x  Mute note
===============================================================================
Related for Fus - Civil Defense tab