Song name
# A B C D E F G H I J K L M N O P Q R S T U V W X Y Z

Misc Unsigned Bands - Fus - Me Generation tab

-------------------------------------------------------------------------------
Me Generation - The F.U.'s
Kill For Christ
-------------------------------------------------------------------------------
Tabbed by: axeslash
Email: holmzito@yahoo.com

Tuning: Standard

e|---------|  e|--------------------------------|
B|---------|  B|--------------------------------|
G|---------|  G|--------------------------------|
D|-9-9-9-9-|  D|-------5--5-5-5-------9-9-9-9-9-|
A|-9-9-9-9-|  A|-7-7-7-3--3-3-3-5-5-5-7-7-7-7-7-|
E|-7-7-7-7-|  E|-5-5-5----------3-3-3-----------| x5

e|-----------------------------------------|
B|-----------------------------------------|
G|-----------------------------------------|
D|-10-10-10-10-10-10-10-10-9-9-9-9-9-9-9-9-|
A|--8--8--8--8--8--8--8--8-7-7-7-7-7-7-7-7-|
E|-----------------------------------------| x2

e|--------------------------------|
B|--------------------------------|
G|--------------------------------|
D|-------5--5-5-5-------9-9-9-9-9-|
A|-7-7-7-3--3-3-3-5-5-5-7-7-7-7-7-|
E|-5-5-5----------3-3-3-----------| x3

e|-----------------------------------------|
B|-----------------------------------------|
G|-----------------------------------------|
D|-10-10-10-10-10-10-10-10-9-9-9-9-9-9-9-9-|
A|--8--8--8--8--8--8--8--8-7-7-7-7-7-7-7-7-|
E|-----------------------------------------| x4

e|------------------------------------------------|
B|------------------------------------------------|
G|------------------------------------------------|
D|-9--7--10--7--9-9-9-9-9-9-9-9-9-9-9-9-9-9-9-9-9-|
A|-7--5---8--5--7-7-7-7-7-7-7-7-7-7-7-7-7-7-7-7-7-|
E|------------------------------------------------|

e|-------------------------------------|  e|--------------------------------|
B|-------------------------------------|  B|--------------------------------|
G|-------------------------------------|  G|--------------------------------|
D|-7-7-9--9-9-9-9-7-7-9--9-9-9-9---7-7-|  D|-------5--5-5-5-------9-9-9-9-9-|
A|-5-5-7--7-7-7-7-5-5-7--7-7-7-7---5-5-|  A|-7-7-7-3--3-3-3-5-5-5-7-7-7-7-7-|
E|-------------------------------------|  E|-5-5-5----------3-3-3-----------| x5

e|-----------------------------------------|
B|-----------------------------------------|
G|-----------------------------------------|
D|-10-10-10-10-10-10-10-10-9-9-9-9-9-9-9-9-|
A|--8--8--8--8--8--8--8--8-7-7-7-7-7-7-7-7-|
E|-----------------------------------------| x2

e|--------------------------------|
B|--------------------------------|
G|--------------------------------|
D|-------5--5-5-5-------9-9-9-9-9-|
A|-7-7-7-3--3-3-3-5-5-5-7-7-7-7-7-|
E|-5-5-5----------3-3-3-----------| x3

e|-----------------------------------------|
B|-----------------------------------------|
G|-----------------------------------------|
D|-10-10-10-10-10-10-10-10-9-9-9-9-9-9-9-9-|
A|--8--8--8--8--8--8--8--8-7-7-7-7-7-7-7-7-|
E|-----------------------------------------| x4

e|------------------------------------------------|
B|------------------------------------------------|
G|------------------------------------------------|
D|-9--7--10--7--9-9-9-9-9-9-9-9-9-9-9-9-9-9-9-9-9-|
A|-7--5---8--5--7-7-7-7-7-7-7-7-7-7-7-7-7-7-7-7-7-|
E|------------------------------------------------| x2

e|-------------------------------------------------------------|
B|-------------------------------------------------------------|
G|-------------------------------------------------------------|
D|-7-7-9--9-9-9-9-7-7-9--9-9-9-9-7-7-9--9-9-9-9-7-7------------|
A|-5-5-7--7-7-7-7-5-5-7--7-7-7-7-5-5-7--7-7-7-7-5-5-9--9--9----|
E|--------------------------------------------------7--7--7----|


| /  slide up
| \  slide down
| h  hammer-on
| p  pull-off
| ~  vibrato
| +  harmonic
| x  Mute note
===============================================================================
Tap to rate this tab
# A B C D E F G H I J K L M N O P Q R S T U V W X Y Z