Song name
# A B C D E F G H I J K L M N O P Q R S T U V W X Y Z

Misc Unsigned Bands - Dualshock - A Spoon Spreads Knife Better tab

Help us improve GuitareTab! Take a short survey!
VERSE
G1
e|-----------------------------|
B|-----------------------------|
G|-88888888-77777777-----------|
D|-88888888-88888888-66-6-66-6-|
A|-66666666-55555555-66-6-66-6-|
E|-------------------44-4-44-4-|

G2                                   (x2)
e|------------------------------|-------------------------|
B|------------------------------|-------------------------|
G|------------------------------|-------------------------|
D|----8------8--------8-----8---|-------13----------13----|
A|-66---6-66---6---55---5-55--5-|-11-11----11--11-11---11-|
E|------------------------------|-------------------------|

CHORUS
G1 (x3)
e|-------------------------------------|--------------------------------|
B|-------------------------------------|--------------------------------|
G|-------------------------------------|--------------------------------|
D|----9---10---9-----------------------|-9999999-7777777-55555555555555-|
A|-77---7----7------10-----------12----|-9999999-7777777-55555555555555-|
E|---------------88----8---10-10----10-|-7777777-5555555-33333333333333-|

G2 (x3)
e|--------------------|--------------------------------|
B|--------------------|--------------------------------|
G|-00000000-5555------|--------------------------------|
D|-22222222-5555-5555-|-9999999-7777777-55555555555555-|
A|-22222222-3333-5555-|-9999999-7777777-55555555555555-|
E|-00000000------3333-|-7777777-5555555-33333333333333-|

BRIDGE
G1
e|---------------------|----------------------|----------------------|---------------|
B|---------------------|----------------------|----------------------|---------------|
G|------10-------10----|----------------------|----------------------|---------------|
D|-1212----121212---12-|------10--------10----|------12--------12----|----9------10--|
A|---------------------|-1212----121212----12-|-1010----101010----10-|-77---7-88---8-|
E|---------------------|----------------------|----------------------|---------------|

e|---------------|---------------|----------------|---------------|
B|---------------|---------------|----------------|---------------|
G|----4------4---|---------------|----------------|---------------|
D|-66---6-66---6-|----4------4---|----6------6----|----3------4---|
A|---------------|-66---6-66---6-|-44---4-44----4-|-11---1-22---2-|
E|---------------|---------------|----------------|---------------|
Related for Dualshock - A Spoon Spreads Knife Better tab