Song name
# A B C D E F G H I J K L M N O P Q R S T U V W X Y Z

Misc Unsigned Bands - Dualshock - I R Damun tab

Intro 
        X2
e|---|------------------------------|--------------------7-5-----3-2-----|
B|---|------------------------------|---------------7h8-------5------3-2-|
G|---|------------------------------|------------------------------------|
D|-9-|----------5-7-\---------1-3-/-|-7-9-10-----------------------------|
A|-9-|-----5-7----------1-3---------|--------10-9-7----------------------|
E|-7-|-5-7----------1-3-------------|------------------------------------|

e|--------------------|
B|--------------------|
G|--------1----6/8-/9-|
D|--------2----X/X-/X-|
A|--------2/4--4/6-/7-|
E|-3-5-7--------------|

Verse (until the end)
e|-------------------------|
B|-------------------------|
G|-99999999/11--88888888/9-|
D|-XXXXXXXX/-X--XXXXXXXX/X-|
A|-77777777/-9--66666666/7-|
E|-------------------------|
Tap to rate this tab
# A B C D E F G H I J K L M N O P Q R S T U V W X Y Z