Guitaretab - guitar tabs
Song name
# A B C D E F G H I J K L M N O P Q R S T U V W X Y Z

Misc Unsigned Bands - Dualshock - We Hate Paramore tab

INTRO G1 
Part 1 (x4)                   
D#|---------------------------|
A#|---------------------------|
F#|---------------------------|
C#|-999999999999-555555555555-|
G#|-999999999999-555555555555-|
C#|-999999999999-555555555555-|
Part 2 (x4)
D#|------------------|---------------|
A#|------------------|---------------|
F#|------------------|--------77-----|
C#|-9999-11-99-11-12-|-5555-7----5-7-|
G#|-9999-9--99-9--9--|-5555-5-55-7-7-|
C#|-9999-9--99-9--9--|-5555-5-55-5-5-|

G2 (repeat until verse)
D#|----------------------------------------|-----------------------------------------|
A#|----------------------------------------|-----------------------------------------|
F#|----------------------------------------|-----------------------------------------|
C#|-11-11-11-11-11-11-11-9-9-9-9-9-12-11-9-|-----------------------------------------|
G#|----------------------------------------|-12-12-12-12-12-12-9-9-9-9-10-10-10-10-9-|
C#|----------------------------------------|-----------------------------------------|
 G1  (x3)
D#|---------------|---------------------|
A#|---------------|---------------------|
F#|---------------|------7--------------|
C#|---------------|----8---8-----8----8-|
G#|-----3h5-------|-10---------8----7---|
C#|-0-0-----5-3-2-|---------------------|

G2 (x3)
D#|---------------------|---------------------------|
A#|---------------------|---------------------------|
F#|---------------------|---------------------------|
C#|--------------12-8-7-|-------8----8------8-----8-|
G#|-------10h12---------|-10-10---10----8-8---7-7---|
C#|-12-12---------------|---------------------------|

CHORUS  (x3) G1 
D#|----------------------------------------------------|
A#|----------------------------------------------------|
D#|-77777-1010101010------------1010101010-7777-5555-7-|
C#|-77777-1010101010-12-10------1010101010-7777-5555-7-|
G#|-55555-8-8-8-8-8--------12---8-8-8-8-8-5555-3333-5-|
C#|-00000-----------------------8-8-8-8-8-5555-3333-5-|
[ Tab from: http://www.guitaretab.com/m/misc-unsigned-bands/110103.html ]
G2 
D#|------------------------------------------------------|
A#|------------------------------------------------------|
D#|-------10-12-14------------15-15-1515-12-12-12-1210-|
C#|-12-12-----------15-14-12-----------------------------|
G#|------------------------------------------------------|
C#|------------------------------------------------------|

D#|-------------------------------------------------------|
A#|-------------------------------------------------------|
D#|-------10-12-14----------15-15-15-15-12-12-12-12-15-14-|
C#|-12-12----------15-14-12-------------------------------|
G#|-------------------------------------------------------|
C#|-------------------------------------------------------|

D#|------------------------------------------------------|
A#|------------------------------------------------------|
D#|-------10-12-14----------15-15-15-15-12-12-12-12-10-9-|
C#|-12-12----------15-14-12------------------------------|
G#|------------------------------------------------------|
C#|------------------------------------------------------|

BRIDGE  
D#|-----------------|------------------|-----------------|---------------------|
A#|-----------------|------------------|-----------------|---------------------|
F#|-----------------|------------------|-----------------|---------------------|
C#|-----------------|------------------|-----------------|---------------------|
G#|-----------------|------------------|-----------------|---------------3-5-1-|
C#|-00-000-000-00-1-|-00-000-000-00-3b-|-00-000-000-00-5-|-00-000-000-00-------|

D#|-----------------|---------------------|------------------------|---------------------|
A#|-----------------|---------------------|------------------------|---------------------|
F#|-----------------|---------------------|------------------------|---------------------|
C#|---------------7-|---------------3-2---|---------------12-10----|---------------------|
G#|-55-555-555-55---|-55-555-555-55-----3-|-55-555-555-55-------12-|-55-555-555-55-------|
C#|-----------------|---------------------|------------------------|---------------5-4-2-|
Related for Dualshock - We Hate Paramore tab