Song name
# A B C D E F G H I J K L M N O P Q R S T U V W X Y Z

Misc Unsigned Bands - Liam Atkinson - The Pepsi Song tab

The Pepsi Song By Liam Atkinson

e----------------------------------------|
B----------------------------------------|
G----------------------------------------| Riff 1  X3
D----------------------------------------|
A----------------------------------------|
E--0-0-3-5---0-0-3-5---0-0-3-5-8-5-3-----|

e----------------------------------------|
B----------------------------------------|
G----------------------------------------| Then
D----------------------------------------|
A----------------------------------------|
E--0-0-3-5---0-0-3-5---------------------|

e----------------------------------------|
B----------------------------------------|
G----------------------------------------| Riff 2  X2
D----------------------------------------|
A--0-0-3-5---0-0-3-5---0-0-3-5-8-5-3-----|
E----------------------------------------|

e----------------------------------------|
B----------------------------------------|
G----------------------------------------| Then
D----------------------------------------|
A--0-0-3-5---0-0-3-5---------------------|
E----------------------------------------|

Riff 2  X2

e----------------------------------------|
B----------------------------------------|
G----------------------------------------| Riff 3
D----------------------------------------|
A--0-0-3-5---0-0-3-5-8-5---0-0-3-5-8-5---|
E----------------------------------------|

e--------------------------------------------------|
B--------------------------------------------------|
G--------------------------------------------------| Riff 4
D--------------------------------------------------|
A--0-0-3-5---0-0-3-5---0-0-3-5-8-5---0-0-3-5-8-5---|
E--------------------------------------------------|

e----------------------------------------|
B----------------------------------------|
G----------------------------------------| Then
D----------------------------------------|
A--0-0-3-5---0-0-3-5---------------------|
E----------------------------------------|

e----------------------------------------|
B----------------------------------------|
G------------0-0-3-5---0-3-5-7-5-3-------| Then
D--0-0-3-5-------------------------------|
A----------------------------------------|
E----------------------------------------|

e----------------------------------------|
B----------------------------------------|
G--0-0-3-5---0-3-5-7-5---0-3-5-7-5-------| Riff 5
D----------------------------------------|
A----------------------------------------|
E----------------------------------------|

e----------------------------------------|
B----------------------------------------|
G--0-0-3-5/---0-0-3-5---0-0-3(w)---------| Then
D----------------------------------------|
A----------------------------------------|
E----------------------------------------|

e----------------------------------------|
B----------------------------------------|
G----------------------------------------| RIFF 6
D----------------------------------------|
A----------------------------------------|
E--0-0-3-3(w)---0-0-3-3(w)---0-0-3-3(w)--|

e----------------------------------------|
B----------------------------------------|
G----------------------------------------| Riff 7 X2
D--2-2-5-5(w)----------------------------|
A--2-2-5-5(w)----------------------------|
E--0-0-3-3(w)----------------------------|

Key: /=slide
    (w)=Whammy
Tap to rate this tab
# A B C D E F G H I J K L M N O P Q R S T U V W X Y Z