Song name
# A B C D E F G H I J K L M N O P Q R S T U V W X Y Z

Misc Unsigned Bands - Everyday Shooter - Start Level tab

-------------------------------------------------------------------------------
			     Start Music - Everyday Shooter by Jonathan Mak
-------------------------------------------------------------------------------

This is from the game "Everyday Shooter" by Jonathan Mak that everyone keeps searching for.

Tabbed by: Jeff Maginniss
Email: peridot203@gmail.com

Tuning: Standard E-A-D-G-B-e

Tempo: Slow

Performance notes:

- Let Ring throughout

Use Standard Tuning with every so slight detune of the G string towards flat, to give it 
grunge/gritty edge.


  GM7omit3            GM7omit3            Dsus2/A           Dsus2/A

e|--2----2-2h3p2----2|--2----2-2-3-2----2|--0----0-0h2p0--0|--0---0-0h2p0---0|
B|----3----------3---|----3----------3---|----3------------|----3----------3-|
G|0------------------|0------------------|2----------------|2----------------|
D|-------------------|-------------------|-----------------|-----------------|
A|-------------------|-------------------|-----------------|-----------------|
E|-------------------|-------------------|-----------------|-----------------|

  GM7omit3            GM7omit3            Dsus2/A           Amaj

e|--2----2-2h3p2----2|--2----2-2-3-2----2|--0----2--3--2---|-----------------|
B|----3----------3---|----3----------3---|----3------------|2----------(2)~~~|
G|0------------------|0------------------|2----------------|-----------------|
D|-------------------|-------------------|-----------------|-----------------|
A|-------------------|-------------------|-----------------|-----------------|
E|-------------------|-------------------|-----------------|-----------------|

Chords:
          EADGBe
GM7omit3: xxx032

         EADGBe
Dsus2/A: xxx230

         EADGBe
A Major: x0222x


| /  slide up
| \  slide down
| ^  accent note on downstroke
| h  hammer-on
| p  pull-off
| ~  vibrato
| +  harmonic
| x  Mute note
===============================================================================
Tap to rate this tab
# A B C D E F G H I J K L M N O P Q R S T U V W X Y Z